PrimaNota.ru - самый крупный в мире бесплатный архив песенных текстов, аккордов, табулатур и нот


Buono - My Love - аккорды и текст, видео

Регистрация Запомнить меня
Войти через:  Facebook Google Twitter Vk Yandex Mail.ru

Buono - My Love - аккорды и текст, видео

Печатать
Просмотров: 134
My Love
Buono
My Love
Buono!
tabbed by manOutOfTime

Played with a lazy ska style (strum after the beat)

Bb5Bb5Bb5      F5F5F5       G5G5G5 x2

a---------------8-6---------8--6--------------|
E--6----8-10-6------10-8-6-------10-8-6--8-10-|
Played Over:
Bb  F  Gm  Eb  Bb  F  Gm  x2

Bb                     F
Kimi ni moratta hatsu meeru
Gm                    F
Hyokkori dete kita nikkichou
Eb                F   Eb          F
Deeto no toki tsukutte ageta obentou

d-3--1-0-------|
a--------3--1--|
E--------------|

Bb                     F
Ano hi mitsuketa nagareboshi
Gm                    F
Futari negatta negai goto
Eb             F   Eb             F
Tere warai de kimi ga itta "Arigatou"

    Gm        Eb     F      Bb
Kimi to iru kara tanoshiku nareru
    Gm      Cm   F
Kimi ga iru dake de ii

           Bb             Eb
Kono yo ni aru daiji na mono
         Dm           F
Kitto okane ja kaemasen
            Bb               Eb
Koi wo shiteru watashi-tachi wa
         Dm   Gm        Cm  F
Aoi sora to soyo kaze dake areba ii yo

Bb5Bb5Bb5       F5F5F5       G5G5G5

-----------------------------------------------------------------------------|
-----------------13----------------------------------------------------------|
-17vvvvvv--12-14----15-14-12----------12-------------------------------------|
-----------------------------13-15-16----12-13-12-10-------------------------|
-----------------------------------------------------------------------------|
-----------------------------------------------------------------------------|

Bb              F
Ochikonda hi no piisu sain
Gm             F
Utatte kureta "Rinda Rinda"
Eb         F     Eb           F
Minna no hakushu soshite ankooru

d-3--1-0-------|
a--------3--1--|
E--------------|

Bb                 F
Kimi to kisu shita yume no naka
Gm                 F
Dou demo ii you na oshaberi
Eb          F     Eb        F
Ashita mo hare da Akai yuuyake

     Gm     Eb       F          Bb
Kimi ga warau to watashi mo warau
    Gm       Cm        F
Jikan wo wasurete shimau

           Bb             Eb
Kono yo ni aru suteki na mono
         Dm    Gm     F
Kitto okane ja kaemasen
            Bb               Eb
Koi wo shitara watashi-tachi wa
             Dm   Gm        Cm F       Cm
Nani mo kamo ga sukoshi kagayaite miemasu

-----------------------------------------------------------------------------|
-----------------------------------------------------------------------------|
-----------------------------------------------------------------------------|
-----------------------------------------------------------------------------|
-3tr-5tr-6tr-8tr----5tr-10tr-8tr-5tr---10tr-12tr-13tr-15tr-------------------|
-----------------------------------------------------------------------------|

----------------------------------------------------------------------------|
-16--15---------------------------------------------------------------------|
--------17-15-14-14--12-----------------------------------------------------|
------------------------15--13-12-------------------------------------------|
----------------------------------15-13-12vvvvvvvvv-------------------------|
----------------------------------------0vvvvvvv----------------------------|

           Bb             Eb
Kono yo ni aru daiji na mono
         Dm    Gm     F
Kitto okane ja kaemasen
            Bb               Eb
Koi wo shiteru watashi-tachi wa
         Dm   Gm        Cm
Aoi sora to soyo kaze dake...

  F         Bb             Eb
Kono yo ni aru suteki na mono
         Dm    Cm     F
Kitto okane ja kaemasen
            Bb               Eb
Koi wo shitara watashi-tachi wa
             Dm    Gm       Cm F
Nani mo kamo ga sukoshi kagayaite miemasu

Bb5Bb5Bb5      F5F5F5       G5G5G5 x2

a---------------8-6---------8--6--------------|
E--6----8-10-6------10-8-6-------10-8-6--8-10-|

Bb
Добавлено: 17.05.2012
Другие материалы по этой песне:
  • Аккорды и текст

Страница создана 17.05.2012
http://primanota.ru/buono/my-love-chords.htm
Привет, Гость.
Предлагаем пройти революционный курс по гитаре.
Подарок от PrimaNota.Ru, забирай!