PrimaNota.ru - самый крупный в мире бесплатный архив песенных текстов, аккордов, табулатур и нот


Buono - My Boy - таба, видео

Регистрация Запомнить меня
Войти через:  Facebook Google Twitter Vk Yandex Mail.ru

Buono - My Boy - таба, видео

Печатать
Просмотров: 175
Уроки эстрадного вокала в Санкт-Петербурге
Авторы музыки: つんく♂
Авторы текста: 三浦徳子
MY BOY by Buono!
tabbed by manOutOfTime (neil_willey@hotmail.com)

-----------|-------|-----|---------------------------------------------------|
-----------|-------|-5-5-|---------------------------------------------------|
-----------|-------|-4-4-|---------------------------------------------------|
-----------|-------|-4-4-|---------------------------------------------------|
-222-33-55-|-rptx7-|-2-2-|---------------------------------------------------|
-----------|-------|-----|---------------------------------------------------|

--19-------19-----------------|----|-19------19----19------------22-|--------|
--------------22-20-19--20-22-|----|------22-----22--22-20-19-20----|--------|
--------21--------------------|----|---21---------------------------|--------|
-----21-----------------------|----|--------------------------------|--------|
------------------------------|-x3-|--------------------------------|--------|
------------------------------|----|--------------------------------|--------|
 E5     B5    D5        A5
Riff 1============================================================>

--------------------|--|
--------------------|--|
--------------------|--|
-2-0-1-2------------|--|
---------0-2-0------|--|
---------------3-1vv|--|
Riff 2=============>

**Verse**
|-----------------1------------------|--------------------|
|-----------------1------------------|--------------------|
|--7/9--9--9-9----2--7/9--9--9-9-----|--------------------|
|--7/9--9--9-9----3--7/9--9--9-9-----|--------------------|
|--5/7--7--7-7-x8-3--5/7--7--7-7-x8--|--------------------|
|-----------------1------------------|--------------------|
Riff 3==============================>

  Played over:
kimi no nayami kizukazuso warukatta kamo,,,
zenbu uchiakenakute Mochiron iikara ne
kurai kao shitetara kurai koto wo yobu
omoi kimochi no mama iru no mottainai yo
Ride On!

|---------------------------|
|---------------------------|
|---------------------------|
|-2-0-1-2-0-1-2-0-1-2-0-1-2-|
|---------------------------|
|---------------------------|  & Riff 2
Riff 4=====================>

    A5			 C5
sou janakute kounan dato iitakute mo
ienai kimi wo ne shitteru

-----------------------------------|------------------------12-|-------------|
-8/9/10--13-13-----8/9/10--15-13---|-8/9/10--13-13--11r10-8----|-------------|
-7/8/9---12-12-----7/8/9---14-12---|-7/8/9---12-12-------------|-------------|
-5/6/7---10-10-----5/6/7---12-10---|-5/6/7---10-10-------------|-------------|
-----------------------------------|---------------------------|-------------|
-----------------------------------|---------------------------|-------------|
Riff 5========================================================>

  A5				 C5
itsuka kitto gururi kawaru toki ga kuru yo
ima ga sono toki!

B5 C5 D5	B5 C5 D5	B5 C5 D5   D#5 D#5

**Chorus**
E5					C5
umarete kite Omedeto- nante iwaretai janai?
 D5		  	G5	      F#5 B5
kyou no kaze ni fukaretara kimochi ii yo ne!
E5			   C5
ikasareteru manma ni ugoiterutte kanji mo
 D5		    G5		    F#5 B5
kimi no suki ni kaerareru yo It's so nice!
C5		   A5
subete wa kimi no tame ni arutte
C5	         A5
koto nara dounano?

B5 B5 B5 A5 A5 B5 	MY BOY!

**Riff 1**

**Riff 3**
uwasa kiitari shitari sou saretari shite
nayami bukeki seishun Sugoshiteru wake desu
Moteru Motenai sou sore ga mondai ka na?
aitsu Sugo ude nandatte iwaretai no?
Come on!

**Riff 4 & 2**

A		            C
Sugo ude ni wa Sugo ude no kodoku ga aru
kimi yuku michi de wa nai desho?
Riff 3
tetsunagitai hito ga doko ka matteiru yo
hora ne, sugu soko!

B5 C5 D5	B5 C5 D5	B5 C5 D5   D#5 D#5

**Chorus**
E5					C5
umarete kite Omedeto- sore de juubun deshou?
D5		  	G5	    F#5 B5
kyou no kaze wa kyou shika fuitenai kara!
E5					C5
Dejitaru na yo no naka dakara ukkari shichau
D5		  	G5	 F#5 B5
honto no jibun sukkari wasurechattari
C5		   A5
subete wa kimi no tame ni arutte
C5		   A5
koto nara dousuru?

B5 B5 B5 A5 A5 B5 	MY BOY!

**Solo**
----------------|---------------------------------|------------------|--------|
-14b15r14h-b15--|-12-12---10-11-12----------------|-12-12---13-15----|--------|
-14b15r14h-b15--|--------------------12-11-9-7----|------------------|--------|
----------------|---------------------------------|------------------|--------|
----------------|---------------------------------|------------------|--------|
----------------|------------------------------x3-|---------------x2-|--------|

--------------------------------|------------------|-------------------------|
-12-12---10-11-12---------------|-12-12---13-15----|-16-16---16-16----16-16--|
------------------12-11--9-7----|------------------|-------------------------|
--------------------------------|------------------|-------------------------|
--------------------------------|------------------|-------------------------|
-----------------------------x3-|---------------x2-|-------------------------|

**Chorus**
E5					C5
umarete kite Omedeto- nante iwaretai janai?
 D5		  	G5	      F#5 B5
kyou no kaze ni fukaretara kimochi ii yo ne!
E5			   C5
ikasareteru manma ni ugoiterutte kanji mo
 D5		    G5		  F#5 B5
kimi no suki ni kaerareru yo It's so nice!
C5		   A5
subete wa kimi no tame ni arutte
C5	         A5
koto nara dounano?

B5 B5 B5 A5 A5 B5 	MY BOY!

**Riff 1 & 2**
Добавлено: 22.07.2012
Другие материалы по этой песне:

Страница создана 10.03.2012
http://primanota.ru/buono/my-boy-chords.htm
Привет, Гость.
Предлагаем пройти революционный курс по гитаре.
Подарок от PrimaNota.Ru, забирай!