PrimaNota.ru - самый крупный в мире бесплатный архив песенных текстов, аккордов, табулатур и нот


Buono - Muteki No Power - таба, видео

Регистрация Запомнить меня
Войти через:  Facebook Google Twitter Vk Yandex Mail.ru

Buono - Muteki No Power - таба, видео

Печатать
Просмотров: 105
Muteki No Power
by Buono!
Tabbed by manOutOfTime
Key: B

-----------------|----11----12-14-|-----------------|--------------||----------|
-12---15---16----|-12----12-------|-12---15---16----|--------------||----------|
-14b--17b--18b---|----------------|-14b--17b--18b---|--------------||----------|
-----------------|----------------|-----------------|--------------||----------|
-----------------|----------------|-----------------|--------------||----------|
-----------------|----------------|-----------------|--------------||-x2-------|

B        F#     E
Hashirou sakebou nageyou domannaka
B         F#      E
Dare ni mo tomerarenai yo

B       F#      E
Hajimete kanjita shoodoo ii janai
B        F#      E
"ikiteru" jikkan suru yo

-----------|------------------------------------------------------------------|
-----------|------------------------------------------------------------------|
-9-8-6-----|------------------------------------------------------------------|
-------9---|------------------------------------------------------------------|
-----------|------------------------------------------------------------------|
-----------|------------------------------------------------------------------|
   D#m                   G#m
Shounen wa oi yasuku shoujo wa dou nano?
E   F#   G#m Bb B   A     E     F#
Ichibyou da  t  te   muda ni shinai!

F#F# F#F#

B           F#    E
Teppatte hekkonde tenpatte ganbatte
 B              F#    E
Ii koto dake wo kangaeru

-------------|----------------------------------------------------------------|
-12-11-12-14-|----------------------------------------------------------------|
-------------|----------------------------------------------------------------|
-------------|----------------------------------------------------------------|
-------------|----------------------------------------------------------------|
-------------|----------------------------------------------------------------|

B            F#     E
Naichatte nanchatte tongatte akkanbee
  B             F#      E     F#   G
Saa muteki no power sakuretsu suru yo!

INTRO (x1)

B        F#     E
Nan demo nai tte mushi shicha imi ga nai
B       F#        E
Kanjita mama ga shinjitsu

-----------|------------------------------------------------------------------|
-----------|------------------------------------------------------------------|
-9-8-6-----|------------------------------------------------------------------|
-------9---|------------------------------------------------------------------|
-----------|------------------------------------------------------------------|
-----------|------------------------------------------------------------------|

   D#m                      G#m
Kamau no mo karamu no mo ai ga aru kara?
E    F#   G#m Bb B   A    E        F#
Sore nara so  re de    ukete tatsu yo

F#F# F#F#

B           F#       E
Tsuppatte butsukatte okkotte iyan natte
 B             F#      E
Ii koto bakari janai kedo
B          F#     E
Nokkatte hippatte ikioide icchatte
  B             F#       E   F#    G
Hora mugen no power wa konna mon janai!

SOLO

------------------------|-----------------------------------------------------|
------------------------|-----------------------------------------------------|
------7-7---------------|-----------------------------------------------------|
-9-9-----------7----7-8-|-----------------------------------------------------|
----------7-7-----9-----|-----------------------------------------------------|
------------------------|-x4--------------------------------------------------|

----------------17--------|-------------------------------|-------------------|
----15-17-17b19----17b19--|-1919191919-19-17b19r17-15--15-|-------------------|
-16-----------------------|--------------------------16---|-------------------|
--------------------------|-------------------------------|-------------------|
--------------------------|-------------------------------|-------------------|
--------------------------|-------------------------------|-------------------|

----------------17--------|----------------------------------|----------------|
----15-17-17b19----17b19--|-10/12-1212-12/15-1515-15/17-1717-|----------------|
-16-----------------------|----------------------------------|----------------|
--------------------------|----------------------------------|----------------|
--------------------------|----------------------------------|----------------|
--------------------------|----------------------------------|----------------|

------------------------------------------------------|-----------------------|
-17-17\15-1515----------------------------------------|-----------------------|
---------------16-14-16-------------------------------|-----------------------|
------------------------15b16r15-1212-14-1212-14---12-|-----------------------|
------------------------------------------------------|-----------------------|
------------------------------------------------------|-----------------------|

--------------------------------------|---------------------------------------|
-1616-14--1616-14-16-161416-1616-1414-|---------------------------------------|
-1616-14--1616-14-16-161416-1616-1414-|---------------------------------------|
--------------------------------------|-------------12------------------------|
--------------------------------------|-------12-14----14-12----12----12-14---|
--------------------------------------|-12-14----------------14----14---------|

---------|------------------------------------------------------|-------------|
---------|------------------------------------------------------|-------------|
---------|------------------------------------------------------|-------------|
-12vv----|----------------12----12-14v--12-14-14b16r14-12-------|-------------|
---------|-12-14-12-12-12----14---------------------------14-12-|-------------|
---------|------------------------------------------------------|-------------|

----------------------------------------------|----------------|--------------|
-10b12------------------------------------r10-|----------------|--------------|
----------------------------------------------|-9b11-----r9\\--|--------------|
----------------------------------------------|----------------|--------------|
----------------------------------------------|----------------|--------------|
----------------------------------------------|----------------|--------------|

F#F# F#F#

B          F#     E
Teppatte hekkonde tenpatte ganbatte
B               F#      E
Ii koto dake wo shinjiteru

-------------|----------------------------------------------------------------|
-12-11-12-14-|----------------------------------------------------------------|
-------------|----------------------------------------------------------------|
-------------|----------------------------------------------------------------|
-------------|----------------------------------------------------------------|
-------------|----------------------------------------------------------------|

B          F#       E
Naichatte nanchatte tongatte akkanbee
  B             F#     E     F#   G
Saa mugen no power bakuretsu suru yo!

B           F#       E
Tsuppatte butsukatte okkotte iyan natte
 B          F#         E
Ii koto bakari janai kedo

-------------|----------------------------------------------------------------|
-12-11-12-14-|----------------------------------------------------------------|
-------------|----------------------------------------------------------------|
-------------|----------------------------------------------------------------|
-------------|----------------------------------------------------------------|
-------------|----------------------------------------------------------------|

B          F#     E
Nokkatte hippatte ikioide icchatte
  B             F#      E     F#   G
Saa mugen no power de hashiri nukero!

INTRO
Добавлено: 29.07.2013
Другие материалы по этой песне:
  • Аккорды и текст

Страница создана 29.07.2013
http://primanota.ru/buono/muteki-no-power-chords.htm
Привет, Гость.
Предлагаем пройти революционный курс по гитаре.
Подарок от PrimaNota.Ru, забирай!