PrimaNota.ru - самый крупный в мире бесплатный архив песенных текстов, аккордов, табулатур и нот


Buono - Miracle Happy Love Song - таба, видео

Регистрация Запомнить меня
Войти через:  Facebook Google Twitter Vk Yandex Mail.ru

Buono - Miracle Happy Love Song - таба, видео

Печатать
Просмотров: 74
Авторы музыки: AKIRASTAR
Авторы текста: C.Piece
Miracle Happy Love Song
by Buono!
tabbed by manOutOfTime
Key: G

Intro

-3------------------||-------------------------------------------------------|
-3-9---11--13--15---||-------------------------------------------------------|
-4-11b-13b-15b-17b--||-------------------------------------------------------|
-5------------------||-------------------------------------------------------|
-5------------------||-------------------------------------------------------|
-3------------------||-------------------------------------------------------|
                  x3

---------------------10\-|----------------------------------------------------|
-----------------10--10\-|----------------------------------------------------|
-1010-1010---1112--------|----------------------------------------------------|
-----------12------------|----------------------------------------------------|
-------------------------|----------------------------------------------------|
-------------------------|----------------------------------------------------|

G                  Am
warai ga tomaranai kurai no Happi-
C         D       G
sora kara ochitekita
G                  Am
hanashi ni naranai kurai ni Furi-damu
C         D       G
heya kara nukedaseba

    Em        D    C    Am    D
futari de ireba tengoku da yo ne
   Em        D     C       C#      D    Am    D
otona wa minna isogashii Furi shiteru dake ja nai

G
HAPPY LOVE SONG
            G F#
kimi ni aitai
Em
LUCKY FOREVER
        Em D
itsu datte
C                           D
ima sara otome no Suto-ri- tatta hitotsu no Riariti
G
HAPPY LOVE SONG
              G F#
kimi ga itoshii
Em
LUCKY FOREVER
         Em D
wakaru desho
C                 D       Am              Em
yoru no mukou nigekonde dare mo oitsukenai basho e
 C         D         G
iketa nara nee aishiaou yo

Intro

G                 Am
tokenai nayami ni Hamatte Buru-ji-
C         D           G
kongaragatte Ichi nuketa

    Em        D    C    Am    D
Romio to Jurietto mitai na higeki wa
   Em        D     C       C#      D    Am    D
monogatari dake sa jamasarenai yo koisuru Ha-to

D    Am  D

G
HAPPY LOVE SONG
              G F#
kimi ga ureshii
E
LUCKY FOREVER
          E D
doko made mo
C                 D         Am               Em
ima shika mienai Suto-ri- korogaru atashi no Eburidei
G
HAPPY LOVE SONG
               G F#
kimi ga hoshii yo
E
LUCKY FOREVER
         E  D
wakaru desho
C                 D       Am             Em
yoru no mukou nigekonde dare mo oitsukenai basho e
 C           D       G     Em
iketa nara nee aishiaou yo
 C       D         G
asa made nee aishiaou yo

-3------------------||-------------------------------------------------------|
-3-9---11--13--15---||-------------------------------------------------------|
-4-11b-13b-15b-17b--||-------------------------------------------------------|
-5------------------||-------------------------------------------------------|
-5------------------||-------------------------------------------------------|
-3------------------||-------------------------------------------------------|
                  x3

---------------------|--------------------------------------------------------|
---------------------|--------------------------------------------------------|
---------------------|--------------------------------------------------------|
-10-9-7-9------------|--------------------------------------------------------|
-----------10-10vvv--|--------------------------------------------------------|
---------------------|--------------------------------------------------------|
Добавлено: 27.11.2013
Другие материалы по этой песне:
  • Аккорды и текст

Страница создана 27.11.2013
http://primanota.ru/buono/miracle-happy-love-song-chords.htm
Привет, Гость.
Предлагаем пройти революционный курс по гитаре.
Подарок от PrimaNota.Ru, забирай!