PrimaNota.ru - самый крупный в мире бесплатный архив песенных текстов, аккордов, табулатур и нот


Buono - Minna Daisuki - аккорды и текст, видео

Регистрация Запомнить меня
Войти через:  Facebook Google Twitter Vk Yandex Mail.ru

Buono - Minna Daisuki - аккорды и текст, видео

Печатать
Просмотров: 153
Minna Daisuki
Buono
Minna Daisuki
by Buono!
tabbed by manOutOfTime
Key: A

INTRO:
---------17v---------17v------13v------15v----------|-------------------------|
----------------------------------------------------|-------------------------|
-------------7777777-------------------------7------|-------------------------|
-7777777-----7777777-----3333-----5555-----7-7-7-10-|-------------------------|
-7777777-----5555555-----3333-----5555-----7-5-7-10-|-------------------------|
-5555555-----------------1111-----3333-----5---5-8--|-------------------------|


---------10-9----9-----------14-|-------10-9-------12----------------|--------|
-9h10vvv------12---12vv---14----|-10vv-------12-10-------8-----------|--------|
--------------------------------|---------------------7--7------7-9--|--------|
--------------------------------|---------------------7-----7-9-7-9--|--------|
--------------------------------|---------------------------7-9-5-7--|--------|
--------------------------------|---------------------------5-7------|--------|
 A       D         C#m    F#m     A     D          E

A               D  A         D
Purichou hiraitara ironna atashi-tachi
C#m    F#m  Bm        E
Warattari sumashitari de ukerun desuu
A               D  A         D
Nani kore kyara janai kedo arisugi tanoshisugi
C#m       F#m  Bm               A
Maji desu kaa~ tte yuu ka arigato

C#m         A     D         C#m
Maigo ni natte mo kokoro no tamago
C#m       A     D         E
Daijoubu atashi no toko modotte oide

D         E         C#m          F#m
Kimi to issho ni hora hoppu suteppu janpu
D       E        A
Kimi ga iru kara doruu dorou doroun
D         E         C#m          F#m
Kimi to itsu datte chippu shiroppu hoiippu
Bm         E
Mou ichido kokoro wo anrokku!!

A       D     D  A
Daisuki da yo minna
A        D      E         A
Soba ni itai yo Nee~ Suki yo!

INTRO

A               D  A         D
Chikoku shisou na asa da Ranchi no oshaberi da
C#m    F#m  Bm        E
Nanja sorya!!! Ataranai uranai da
A               D  A         D
Muri ssu kenka shitari medetashi nakanaori
C#m       F#m  Bm               A
Hisabisa ni hansei shimashita

C#m         A     D         C#m
Atashi no zenbu wo shitteru tamago
C#m       A     D         E
Itsudatte atashi no koto mamotte kureru

D         E         C#m          F#m
Sora made toberu yo hoppu suteppu janpu
D       E        A
Pikaso mitai ni doruu dorou doroun
D         E         C#m          F#m
Okashi wa makasete chippu shiroppu hoiippu
Bm         E
Kyara nari kokoro wo anrokku!!

A       D D       A
Hanarenai de minna
A        D      E         A
Issho ni itai yo Nee~ Zutto!

Sax Solo:
--------------------------|---------------------------|-----------------------|
------12b13-----vvv-13-12-|-10vv-10vv-10-----10-10/14-|-----------------------|
-9-11---------------------|---------------11----------|-----------------------|
--------------------------|---------------------------|-----------------------|
--------------------------|---------------------------|-----------------------|
--------------------------|---------------------------|-----------------------|
 A                          A

---------------------------------|---------------------------|----------------|
------10h12p10h12b13---------r12-|-10vv-10vv-10vv------------|----------------|
-9-11----------------------------|----------------11-9vv-/11-|----------------|
---------------------------------|---------------------------|----------------|
---------------------------------|---------------------------|----------------|
---------------------------------|---------------------------|----------------|
 D                                 A

---9/12v-12vv--12-14---|-------------------|----------------------------------|
-----------------------|-10/13vv-12vv-10vv-|------10------10------10------10--|
-9---------------------|-------------------|-9h11----9h11----9h11----9h11-----|
-----------------------|-------------------|----------------------------------|
-----------------------|-------------------|----------------------------------|
-----------------------|-------------------|----------------------------------|
 E                       D                   A

-12v-12v-12vvvv-|-------------------------------------------------------------|
----------------|-------------------------------------------------------------|
----------------|-------------------------------------------------------------|
----------------|-------------------------------------------------------------|
----------------|-------------------------------------------------------------|
----------------|-------------------------------------------------------------|
 E

C#m         A     D         C#m
Naitari warattari mou hitori no jibun
C#m       A     D         E
Itsu datte atashi ni genki wo kureru

D         E         C#m          F#m
Kimi to issho ni hora hoppu suteppu janpu
D       E        A
Kimi ga iru kara doruu dorou doroun
D         E         C#m          F#m
Kimi to itsu datte chippu shiroppu hoiippu
Bm         E
Moo ichido kokoro wo anrokku!!

A       D D       A
Daisuki da yo minna
A        D      E         A
Soba ni itai yo Nee~ Suki yo!

----------------------|------------------------|-----------------|------------|
-12b13--12b13-----r12-|-12b13vv-12vv-10vv------|-10/12vvv--12vvv-|------------|
----------------------|-------------------11vv-|-----------------|------------|
----------------------|------------------------|-----------------|------------|
----------------------|------------------------|-----------------|------------|
----------------------|------------------------|-----------------|------------|
 A                      D                        Bm

-------------------|-------12vv-12vv-|-12-14---------------|------------------|
-12vvv--14-10-9/10-|----10-----------|-------10/14-\12-\10-|------------------|
-------------------|-11--------------|---------------------|------------------|
-------------------|-----------------|---------------------|------------------|
-------------------|-----------------|---------------------|------------------|
-------------------|-----------------|---------------------|------------------|
 A                   A                 D

------------------------------------|-8---------------------------------------|
-0//////////////14\\\\\\\\\\\\\\\\0-|-10--------------------------------------|
------------------------------------|-9---------------------------------------|
------------------------------------|-7---------------------------------------|
------------------------------------|-----------------------------------------|
------------------------------------|-----------------------------------------|
 E                                    A
Добавлено: 25.07.2013
Другие материалы по этой песне:
  • Аккорды и текст

Страница создана 25.07.2013
http://primanota.ru/buono/minna-daisuki-chords.htm
Привет, Гость.
Предлагаем пройти революционный курс по гитаре.
Подарок от PrimaNota.Ru, забирай!