PrimaNota.ru - самый крупный в мире бесплатный архив песенных текстов, аккордов, табулатур и нот


Buono - Kokoro No Tamago - таба, видео

Регистрация Запомнить меня
Войти через:  Facebook Google Twitter Vk Yandex Mail.ru

Buono - Kokoro No Tamago - таба, видео

Печатать
Просмотров: 177
Уроки эстрадного вокала в Санкт-Петербурге
Kokoro No Tamago
by Buono!
tabbed by manOutOfTime

INTRO:
-6-------------------|-6------------------||----------------------------------|
----8-6-8------6-----|----8-6-8-------6---||----------------------------------|
------------8----8-7-|------------888---7-||----------------------------------|
---------------------|--------------------||----------------------------------|
---------------------|--------------------||----------------------------------|
---------------------|---------------x2---||----------------------------------|
                                                                              
D#5           D5        
Hoppu suteppu janpu
C5          Bb5
Doruu dorou doroun
D#5           D5  
Chippu shiroppu hoiippu
C5          Bb5
Ipaii aru no

-x6x-x6x-66x-x6x--|-----------------------------------------------------------|
-x6x-x6x-66x-x6x--|-----------------------------------------------------------|
------------------|-----------------------------------------------------------|
------------------|-----------------------------------------------------------|
------------------|-----------------------------------------------------------|
--------------x4--|-----------------------------------------------------------|
 funk strum                                                                        
D#5           D5  
Hoppu suteppu janpu
C5          Bb5
Doruu dorou doroun
D#5           D5  
Chippu shiroppu hoiippu
C5      D5  Bb5
Naritai atashi

------------------------------------------------------------------------------|
--------------------------------------------------------------11-9------------|
-10vvvv-----10vv-----10vv-----10-8-7-8-10vv-----10vv-----10vv------10---------|
----------8--------8--------8-----------------8--------8----------------------|
--------8--------8--------8-----------------8--------8------------------------|
------------------------------------------------------------------------------|
 D#5        D5       C5       Bb5      D#5      D5   G5  C5        Bb5        

VERSE:
      D#5          D5    Bb5
Kuuru de tsuyokute kakkoii
 Bb5        C5     D5
Iketeru to iwareteite mo
F5    D#5      D5       Bb5   
Honto wa sonna demo nai shi
D5        C5        Bb5
Futsuu ni onna no ko da mon

MIDDLE:
     D#5    F5  D5    G5
Puresshaa nanka hanenokete
  D#5      F5       D5   G5
sunao ni naritain dakedo na
 D#5          F5  D5      G5
kyara janai toka iwareta tte
 D#              F5
atashi no kokoro anrokku!

CHORUS:
      D#5  F5   D5     G5
Naritai  you ni nareba ii jan
D#5    F5         D5    G5
Shugo kyara ga tsuiteru yo
      D#5   F5   D5     G5
Yaritai   you ni yareba ii jan
   D#           F5
Zenzen okkee da shi

      D#5  F5   D5     G5
Naritai  you ni nareba ii jan
D#5     F5         D5   G5
Hitotsu dake ja tsumannai
      D#5  F5   D5     G5
Yaritai  you ni yareba ii jan
  D#5  F5        Bb5
Nan datte dekiru yo

------------------------------------------------------------------------------|
------------------------11-9--------------------------------------------------|
-10vv-----10vv-----10vv------10-----------------------------------------------|
--------8--------8------------------------------------------------------------|
------8--------8--------------------------------------------------------------|
------------------------------------------------------------------------------|
 D#5      D5   G5  C5        Bb5                                              

VERSE:
       D#5           D5     Bb5
Dare demo doko ka de negatteru
Bb5      C5         D5
Chigau jibun ni naritai to
F5     D#5       D5        Bb5   
Dakara senobi wo shite mitari
  D5      C5       Bb5
Hekondari mo surun da yo ne

MIDDLE:
       D#5  F5    D5      G5
Kokoro no naka ni aru tamago
  D#5    F5        D5  G5
Minna motteru hazu dakara
  D#5         F5    D5      G5
Maru mo batsu mo tsuke sasenai
  D#              F5
Negatibu haato ni rokku on!

CHORUS:
     D#5  F5   D5    G5
Ikitai  you ni ikeba ii jan
D#5   F5       D5  G5
Shinpai shinakute ii
      D#5    F5    D5      G5
Tama ni wa sukoshi saborya ii jan
D#              F5
Ganbari suginai de
     D#5  F5   D5    G5
Ikitai  you ni ikeba ii jan
D#5   F5        D5 G5
Otona ni wa wakannai
      D#5  F5     D5    G5
Shinjiru michi wo ikeba ii jan
     D#5    F5 Bb5
Machigatta tte ii

SOLO:
-----------------|--------------------|---------------------------------------|
-13b15--rbrbrbrb-|--------------------|----------------------15-16------------|
-----------------|-/15--13b15rbrbrbrb-|-----15-17--17b19-rbr-------17b19rrrr--|
-----------------|--------------------|-/15-----------------------------------|
-----------------|--------------------|---------------------------------------|
-----------------|--------------------|---------------------------------------|
                                                                       
-------------------|-////18--16-16b17rbrbrb-|---14-16---14-16-----------------|
-------------------|------------------------|-18-----18------18-16-14--14-16--|
-15-17-15brbrbrbr--|------------------------|------------------------17-------|
-------------------|------------------------|---------------------------------|
-------------------|------------------------|---------------------------------|
-------------------|------------------------|---------------------------------|
                                                                              
-----------------------------|------------------------------------------------|
-14--------------------------|------------------------------------------------|
----17-15--13h15-13b15rbrbrb-|-14h15p14---14h15p15h17p14-14h15h17-14h15h17----|
-----------------------------|---------17-------------------------------------|
-----------------------------|------------------------------------------------|
-----------------------------|------------------------------------------------|
                                                                              
----------15h17h18-19b21---rbrbrbr-|------------------------------------------|
-15h17h18--------------------------|------------------------------------------|
-----------------------------------|------------------------------------------|
-----------------------------------|------------------------------------------|
-----------------------------------|------------------------------------------|
-----------------------------------|------------------------------------------|

CHORUS:
      D#5 F5   D5     G5
Naritai you ni nareba ii jan
D#5      F5        D5   G5
Shugo kyara ga tsuiteru yo
      D#5 F5   D5     G5
Yaritai you ni yareba ii jan
   D#            F5
Zenzen okkee da shi
      D#5 F5   D5     G5
Naritai you ni nareba ii jan
D#5     F5         D5   G5
Hitotsu dake ja tsumannai
      D#5 F5   D5     G5
Yaritai you ni yareba ii jan
  D#5  F5        Bb5
Nan datte dekiru yo

F5 Bb5 Bb5 Bb5 Bb5

Kitto
D#5           D5  
Hoppu suteppu janpu
C5          Bb5
Doruu dorou doroun
D#5             D5  
Chippu shiroppu hoiippu
C5        Bb5
Ippai aru mon

D#5           D5  
Hoppu suteppu janpu
C5          Bb5
Doruu dorou doroun
D#5             D5  
Chippu shiroppu hoiippu
C5      D5  Bb5
Naritai atashi

------------------------------------------------------------------------------|
------------------------11-9--------------------------------------------------|
-10vv-----10vv-----10vv------10-----------------------------------------------|
--------8--------8------------------------------------------------------------|
------8--------8--------------------------------------------------------------|
------------------------------------------------------------------------------|
 D#5      D5   G5  C5        Bb5                                              

Bb5 Bb5 Bb5 Bb5 Bb5 Bb5

------------------------------------------------------------------------------|
------------------------------------------------------------------------------|
------------------------------------------------------------------------------|
-8-6-7-8-6-7--888-88--88------------------------------------------------------|
-8-6-7-8-6-7--888-88--88------------------------------------------------------|
-6-4-5-6-4-5--666-66--66------------------------------------------------------|
Добавлено: 02.10.2013
Другие материалы по этой песне:
  • Аккорды и текст

Страница создана 02.10.2013
http://primanota.ru/buono/kokoro-no-tamago-chords.htm
Привет, Гость.
Предлагаем пройти революционный курс по гитаре.
Подарок от PrimaNota.Ru, забирай!