PrimaNota.ru - самый крупный в мире бесплатный архив песенных текстов, аккордов, табулатур и нот


Buono - Kiss Kiss Kiss - таба, бас-таба, видео

Регистрация Запомнить меня
Войти через:  Facebook Google Twitter Vk Yandex Mail.ru

Buono - Kiss Kiss Kiss - таба, бас-таба, видео

Печатать
Просмотров: 268
Авторы музыки: 井上慎二郎
Авторы текста: 岩里祐穂
Buono! - Kiss! Kiss! Kiss!
tabbed by ManOutOfTime
Key: F

Strum at start:
C/F  (x33010)

Intro Riff (:
------------------------------------------------------------------------|
-13---11-10-------10-10----------13\------------------------------------|
------------10-12---------10-12-----------------------------------------|
------------------------------------------------------------------------|
------------------------------------------------------------------------|
-------------------------------------x2---------------------------------|
Played over:
C	|Gm	|Bb  C	| x2

F        C            Dm            Bb
Kotae nante doko ka ni aru tte omottecha dame sa
F        C            Dm            Bb
Kotae nante jibun no naka dake ni arun da

     Bb F
Kakkoii jan

A-0-1-3v---------------------------

Dm          Bb               F
Ari no mama sunao na kimochi zenbu
      Bb F
Yappa ai jan

A-0-1-3v----------------------------

Dm          Bb               F
Ima no mama afureta kimochi zenbu

Gm           Am   Bb           F
Sei ippai hi ni   mukatte butsukete miyou yo
Gm    Am            Bb
Mae muite kao agete naiteru hima wa nai yo

C		      Bb    C
Jounetsu no kisu! Kono "seishun" ni kisu!
Bb  C          Am Am Bb Bb Bb Gm
Ima ganbatteru kimi  ga daisu ki
C		      Bb    C
Saikoo no kisu! Sono zenryoku ni kisu!
Bb    C       Am Am Bb Bb Bb   Gm Gm
Mune ippai no omoi  tsutaetain da yo
Gm Am Gm  C  F
A. I. shi.te.ru

Intro Riff x2

	Plucked Verse:
-----1------------3----------------5------------6---------||-----------------|
-------1------------5----------------6------------6-------||-----------------|
---------2------------5----------------7------------7-----||-----------------|
----------------5----------------7------------8-----------||-----------------|
---3----------3----------------5------------8-------------||-rpt-------------|
-1---------x2------------x2--------------x2-----------x2--||-----------------|
F             C                Dm           Bb
Riyuu nante doko ni mo   mitsukaranaku tatte ii sa
F    C             Dm         Bb
Kizuita toki wa mou   hashiri dashiterun da

      Bb  F
Datte ima jan

A-0-1-3v-------------------------

Dm          Bb               F
Tsuki nukete hadashi no mama de zutto
       Bb F
Son de ai jan

A-0-1-3v----------------------------

Dm          Bb               F
Tsuranuite akiramenai de zutto

Gm           Am   Bb           F
Kanashii hi wa onaka ippai tabereba ii
Gm    Am            Bb
Tama ni hekondara hiru made netereba ii

C		    Bb    C
Kandou no kisu! Kono "shunkan" ni kisu!
Bb    C       Am Am Bb Bb Bb   Gm Gm
Ima ganbatteru kimi ni agetai
C		    Bb    C
Donmai no kisu! Sono "yancha" ni kisu!
Bb    C       Am Am Bb Bb Bb   Gm Gm
Mune ippai no omoi kanjitain da yo
Gm Am Gm  C  C
Da.ki.shi.me.te

Solo
C	F	Gm	F-Gm-Am-F x3
C	F
Bb		C		F

Gm           Am   Bb           F
Kanashii hi wa onaka ippai tabereba ii
Gm    Am            Bb
Tama ni hekondara hiru made netereba ii

C		      Bb    C
Jounetsu no kisu! Kono "seishun" ni kisu!
Bb    C       Am Am Bb Bb Bb   Gm Gm
Ima ganbatteru kimi ga daisuki
C		    Bb   C
Saikoo no kisu! Sono zenryoku ni kisu!
Bb    C       Am Am Bb Bb Bb   Gm Gm
Mune ippai no omoi tsutaetain da yo
Gm Am Gm  C
A. I. shi.te.ru

Intro Riff x2

Cxxx Cxxx Cxxx Cxxx Cxxx Cxxx
F
Добавлено: 13.05.2012
Другие материалы по этой песне:

Страница создана 13.05.2012
http://primanota.ru/buono/kiss-kiss-kiss-chords.htm
Привет, Гость.
Предлагаем пройти революционный курс по гитаре.
Подарок от PrimaNota.Ru, забирай!