PrimaNota.ru - самый крупный в мире бесплатный архив песенных текстов, аккордов, табулатур и нот


Buono - Kimi Ga Ireba - таба, видео

Регистрация Запомнить меня
Войти через:  Facebook Google Twitter Vk Yandex Mail.ru

Buono - Kimi Ga Ireba - таба, видео

Печатать
Просмотров: 100
Kimi Ga Ireba
by Buono!
tabbed by manOutofTime

INTRO:
--2-----2-1-----1-------------------------------2-2---------7-----------------|
------4-------2---4-----4-2-----2-0---------2-4---4--------7------------------|
----3-------1---------3-------3---------3-4-------4-------8-------------------|
--------------------4-------3-------1-4-----------4------9--------------------|
--------------------------------------------------2---------------------------|
------------------------------------------------------------------------------|
  D#m     C#      B       Bbm       G#m           B

VERSE:
     B             F#
Kimi ga ireba arukidaseru yo
  G#m   C#       F#    Bbm
Donna kanashii yoru mo
  G#m      Bbm                 B
Hoo tsutau namida afureru mama ni

     B                F#
Kimi ga ireba tsuyoku nareru yo
  G#m       C#      F#    Bbm
Kakushite kita omoi mo
  G#m            Bbm                 B
Kazaranai kotoba de hanaseru ki ga suru

D#m        Bbm      D#m        Bbm     B                   C#
Doushite darou tsunagu yubi ga areba mune wa itsumo atatakai

CHORUS:
  D         E       C#m     F#m
Kono yo ni umareta ureshisa wo
  D        E     C#m        A
Kono yo wo ikiru tsurasa wo
  Bm          C#m         G#            C#
Dare mo ga kanji nagara kotae sagashiteiru kedo
  D         E       C#m     F#m
Ashiato no tsuitenai michi wo
  D        E     C#m        A
Mada fumidasezu ni ite mo
  Bm          C#m             D               A-G#m-F#m-G#m-A
Bokutachi wa mirai ni mukai ippo zutsu aruiteiru

VERSE:
     B             F#
Kimi ga ireba shinjirareru yo
  G#m   C#       F#    Bbm
Akirame sae shinakereba
  G#m      Bbm                 B
Kibou ga itsudatte karenai koto wo

D#m       Bbm     D#m     Bbm      B              C#
Moshi omoigakenai koto ga okite mo kitto, kitto daijoubu

CHORUS:
  D         E       C#m     F#m
Tashika na mono nante nai kedo
  D        E     C#m        A
Nukumori wa tashika ni aru
  Bm          C#m         G#            C#
Kimi wo omou kimochi de toki wo koete ikeru kara
  D         E       C#m     F#m
Mada katachi ni naranai negai
  D        E     C#m        A
Mada koe ni naranai ai
  Bm          C#m             D               A-G#m-F#m-G#m-A
Bokutachi wa mirai ni mukai hitotsu zutsu kanaete yuku

SOLO:
-----------------------------------|--------------------------------------|---|
-13-12-13-12-10--12----------------|--------------------------------------|---|
--------------------12vvvvvvvvvvv\-|-9h10h12-10-9-------------------------|---|
-----------------------------------|--------------12-10hh-12-10-12/14vvv--|---|
-----------------------------------|--------------------------------------|---|
-----------------------------------|--------------------------------------|---|


------------------7------------12----------------------------|----------------|
---------7-8-10vv---10-12b14------14r12--10-12-1010vvv-12/14-|----------------|
-7-9-7-9-----------------------------------------------------|----------------|
-------------------------------------------------------------|----------------|
-------------------------------------------------------------|----------------|
-------------------------------------------------------------|----------------|


---------------------------16br--16vvvv-|-------------------------------------|
-15/17-19--17h19p17-15------------------|-----------------------15vv-17vv-19--|
-----------------------18---------------|-11---------13-----------------------|
----------------------------------------|----9-11-12----11-13-15--------------|
----------------------------------------|-------------------------------------|
----------------------------------------|-------------------------------------|

CHORUS:
  D         E       C#m     F#m
Kono yo ni umareta ureshisa wo
  D        E     C#m        A
Kono yo wo ikiru tsurasa wo
  Bm          C#m         G#            C#
Dare mo ga kanji nagara kotae sagashiteiru kedo
  D         E       C#m     F#m
Ashiato no tsuitenai michi ni
  D        E     C#m        A
Ima hizashi ga furisosogu
  Bm          C#m             D               A-G#m-F#m-G#m-A
Bokutachi wa mirai ni mukai ippo zutsu aruite yuku

SOLO 2:
----------7----------12--12---------------------------------|-----------------|
-7-9b11-----10-12b14---14--14r12-10-9--9h10p9---------------|-----------------|
----------------------------------------------9---------9vv-|-----------------|
------------------------------------------------11vvvvv-----|-----------------|
------------------------------------------------------------|-----------------|
------------------------------------------------------------|-----------------|

-------------------7-9-7-9-11b12-12-12r11-9-13b15vv\\-|-----------------------|
------7679-10-9-10------------------------------------|-----------------------|
-7679-------------------------------------------------|-----------------------|
------------------------------------------------------|-----------------------|
------------------------------------------------------|-----------------------|
------------------------------------------------------|-----------------------|

-14-16-17--16-----18b19---18--------------------------12--12-----------------|
--------------15-------------15vvvv---15p14-12-12b14----14--14r12-10-9-10vv--|
-----------------------------------------------------------------------------|
-----------------------------------------------------------------------------|
-----------------------------------------------------------------------------|
-----------------------------------------------------------------------------|

----------17vv----------19b-19bvvvvv-|-17vv-16vv-14vv-16v-17hhhvvv-|----------|
-15-14-15------15-14-15--------------|-----------------------------|----------|
-------------------------------------|-----------------------------|----------|
-------------------------------------|-----------------------------|----------|
-------------------------------------|-----------------------------|----------|
-------------------------------------|-----------------------------|----------|

----------------------|-------------------------------------------------------|
-/19-17hhhhhvvvvvvv\--|-------------------------------------------------------|
----------------------|-------------------------------------------------------|
----------------------|-------------------------------------------------------|
----------------------|-------------------------------------------------------|
----------------------|-------------------------------------------------------|
Добавлено: 23.09.2013
Другие материалы по этой песне:
  • Аккорды и текст

Страница создана 23.09.2013
http://primanota.ru/buono/kimi-ga-ireba-chords.htm
Привет, Гость.
Предлагаем пройти революционный курс по гитаре.
Подарок от PrimaNota.Ru, забирай!