PrimaNota.ru - самый крупный в мире бесплатный архив песенных текстов, аккордов, табулатур и нот


Buono - Kia Ora Gracias Arigato - аккорды и текст, видео

Регистрация Запомнить меня
Войти через:  Facebook Google Twitter Vk Yandex Mail.ru

Buono - Kia Ora Gracias Arigato - аккорды и текст, видео

Печатать
Просмотров: 139
Kia Ora Gracias Arigato
Buono
Kia Ora Gracias Arigato
Buono!
tabbed by manOutOfTime

D/C     x30232
D/B     x20232

D      D/C    D/B     G    A Bm
Yuuki! Genki! Yaruki! Hyakubai!

D
Kia ora gurashasu arigato
                             G
Sheishei gurattse kamusahamunida
         A        C C C
Oisogashii tokoro
D
Koopunkamuun terimakashii
                     G
Merushii asante oburigaado
           A         C C C
Ki te kurete sankyuu!!

      Em F#m     Bm  A
Minna no egao ga mabushii yo
Em F#m       A
Aishiteru kansha! Wow wow

       D          F#m        Bm       G       A
Kimi kakeru boku ikooru wa mugendai desu kara ne
F#m Bm     G           CC  C
Ima, nani mo nakute mo iin da
       D          F#m        Bm       G       A
Kimi kakeru boku ikooru nandemo dekisou desu
F#m   Bm        G              D
Osore zu ni zuutto ikite yarou yo!!!

D      D/C    D/B     G    A Bm
Yuuki! Genki! Yaruki! Hyakubai!

D
Kia ora gurashasu arigato
                            G
Sheishei gurattse kamusahmunida
           A        C C C
Saigo no retsu no hito
D
Koopunkamuun terimakashii
                     G
Merushii asante oburigaado
           A         C C C
Mieteru yo sankyuu!

      Em F#m     Bm  A
Minna no egao ni kansha jou
Em F#m       A
Kami hikouki tobasu ! Wow wow !

       D          F#m        Bm       G       A
Kimi kakeru ai ikooru ga koko ni iru tte koto de
F#m Bm      G            CC  C
Aijou semat te kuru n da
       D          F#m        Bm       G       A
Kimi kakeru asu ikooru yume ga hirogatte ku yo
F#m   Bm        G    C          D
Osore zu ni zuutto waratte iyou yo!

solo
---------------|-------------------|--------------14----|-------17----15-----|
-8-7-5---------|-/888-7-5---88-7---|-----15-17-15----15-|----15----15----15--|
-------7-6-7\--|----------7------7-|-/14----------------|-14-----------------|
---------------|-------------------|--------------------|--------------------|
---------------|-------------------|--------------------|--------------------|
---------------|-------------------|--------------------|--------------------|

----------19--17-15--14-12--18181818-17-|------------------------------------|
-------15-------------------18181818-17-|------------------------------------|
-12/16----------------------------------|------------------------------------|
----------------------------------------|------------------------------------|
----------------------------------------|------------------------------------|
----------------------------------------|------------------------------------|

      Em F#m     Bm  A
Minna no egao ga mabushii yo
Em F#m       A
Aishiteru kansha! Wow wow

       D          F#m        Bm       G       A
Kimi kakeru boku ikooru wa mugendai desu kara ne
F#m Bm      G            CC  C
Ima, nani mo nakute mo iin da
       D          F#m        Bm       G       A
Kimi kakeru boku ikooru nandemo dekisou desu
F#m Bm          G   C          D
Osore zu ni zuutto ikite yarou yo!!!

D      D/C    D/B     G    A Bm
Yuuki! Genki! Yaruki! Hyakubai!
D      D/C    D/B     G    A Bm
Yuuki! Genki! Yaruki! Mugendai!
Добавлено: 27.02.2012
Другие материалы по этой песне:
  • Аккорды и текст

Страница создана 27.02.2012
http://primanota.ru/buono/kia-ora-gracias-arigato-chords.htm
Привет, Гость.
Предлагаем пройти революционный курс по гитаре.
Подарок от PrimaNota.Ru, забирай!