PrimaNota.ru - самый крупный в мире бесплатный архив песенных текстов, аккордов, табулатур и нот


Buono - Juicy Heart - аккорды и текст, видео

Регистрация Запомнить меня
Войти через:  Facebook Google Twitter Vk Yandex Mail.ru

Buono - Juicy Heart - аккорды и текст, видео

Печатать
Просмотров: 121
Juicy Heart
Buono
Buono!
Juicy Heart
tabbed by manOutOfTime
key: Em

E5E5 A5A5 D5D5 G5G5 F#5 x4

Em            C
Tasogare sora kimi wa hitori
    D                 Bm
Terasareta nagai kage ni
      Em            C
Yuuki dashite honno sukoshi
       D               Em
Sou to chikazuite mita no

Em            C
Tomodachi itte yuuwari ni wa
    D                 Bm
Iza futari kiri ni naru to
      Em            C
Naze ka kotoba suku naku natte
       D               Em
Bimyou naku ki ni naru yo

       Am                           Em
Chanto hitomi mitsumerarezu ni afuredasu omoi
       Am
Doki doki suru mune no kodou wa
      B5B5 B5B5 C5B5A5   B5 B5
Koi gokoro dato kakushin shita

Em          C          D             Em    E5 G5 A5
Juicy Heart saikouchou aimai nanka janai yo
Em          C          D             Em    E5 G5 A5
Mako shoubu dekinai otome gokoro kizuite
Em          C          D             Em    E5 G5 A5
Junsui nekko no omoi wa zettai hoka no dare ni mo
Em          C          D             Bm    E5 G5 A5
Isai shiraretakunai kimi dake ni misetai yo
    Am          Bm
Todokanai hodou no koe de

E5E5 G5 A5 B5 A5     B5 A5 B5 D5

      Am        Bm
Suki datte tsubuyaku Juicy Heart

E5E5 A5A5 D5D5  G5G5F#5 x4

Em            C
Setsunai yoru nagai mail
    D                 Bm
Nandomo kaite wa keshita
     Em            C
Kono kimochi wo uchiaketara
       D               Em
Kowareru no ga kowainda

Em            C
Kimi no egao ukan dekuru
    D                 Bm
Tomadou hodo muishiki ni
     Em            C
Kokoro no oku toi kaketara
       D               Em
Nanika ga kawari hajimeta

       Am                           Em
Watashi to ate inai toki ni wa doko de nani shiteru
       Am
Yakimochi toka yaitemo ii
      B5 B5 B5 B5 C5 B5 A5 B5 B5
Mou kimi shika mi e  na i  n  da

Em          C          D             Em    E5 G5 A5
Juicy Heart shintochu zettai kimi janakya dame
Em          C          D             Em    E5 G5 A5
Aitai kimochi ga shizou dakedo bukiyou na my heart
Em          C          D             Em    E5 G5 A5
Shouhai kakuritsu nante zenzen yosoku dekizu ni
Em          C          D             Em    E5 G5 A5
Tachitsuku shita mama kimi wa mitsumete iru yo
    Am          Bm
Motto sunao ni naretara

E5E5 G5 A5 B5 A5     B5 A5 B5 D5

     Am        Bm
Tsutaerareru no ni Juicy Heart

SOLO
-------------------------------|-------------------|-------------------------|
-17b20--------17b18--17vvv-----|-17----------------|-------------------------|
-------------------------------|----19-16----------|-------------------------|
-------------------------------|----------19vvvtr20|-------------------------|
-------------------------------|-------------------|-------------------------|
-------------------------------|-------------------|-------------------------|

-------------------------------5-7-8-7-5-------------------------------------|
-------------------------5-7-8-----------8-7-5-------------------------5-7-8-|
-------------------4-5-7-----------------------7-5-4-------------4-5-7-------|
-------------4-5-7-----------------------------------------4-5-7-------------|
-------3-5-7-----------------------------------------3-5-7-------------------|
-3-5-7-----------------------------------------------------------------------|
                                                                             
-----------------------------------------------------------------------------|
-7-5-10b12vvvvv--------------------------------------------------------------|
-----------------------------------------------------------------------------|
-----------------------------------------------------------------------------|
-----------------------------------------------------------------------------|
-----------------------------------------------------------------------------|

Em          C          D             Em
Juicy Heart saikouchou aimai nanka janai yo
Em          C          D             Em
Mako shoubu dekinai otome gokoro kizuite
Em          C          D             Em
Junsui nekko no omoi wa zettai hoka no dare ni mo
Em          C          D             Em    E5 G5 A5
Isai shiraretakunai kimi dake ni misetai yo

Em          C          D             Em    E5 G5 A5
Juicy Heart shintochu zettai kimi janakya dame
Em          C          D             Em    E5 G5 A5
Aitai kimochi ga shizou dakedo bukiyou na my heart
Em          C          D             Em    E5 G5 A5
Shouhai kakuritsu nante zenzen yosoku dekizu ni
Em          C          D             Em    E5 G5 A5
Tachitsuku shita mama kimi wa mitsumete iru yo
    Am          Bm
Adoi haru kimi to futari

E5E5 G5 A5 B5 A5     B5 A5 B5 D5

     Am        Bm
Kakerukete mitai Juicy Heart


E5 E5 A5 A5 D5 D5 G5 G5 F#5  x4

E5 E5 E5 E5 E5 E5 E5 E5 E5
Добавлено: 16.04.2012
Другие материалы по этой песне:
  • Аккорды и текст

Страница создана 16.04.2012
http://primanota.ru/buono/juicy-heart-chords.htm
Привет, Гость.
Предлагаем пройти революционный курс по гитаре.
Подарок от PrimaNota.Ru, забирай!