PrimaNota.ru - самый крупный в мире бесплатный архив песенных текстов, аккордов, табулатур и нот


Buono - I Need You - таба, видео

Регистрация Запомнить меня
Войти через:  Facebook Google Twitter Vk Yandex Mail.ru

Buono - I Need You - таба, видео

Печатать
Просмотров: 127
Уроки эстрадного вокала в Санкт-Петербурге
Авторы музыки: AKIRASTAR
Авторы текста: 岩里祐穂
Buono
I Need You
tabbed by manOutOfTime (neil_willey@hotmail.com)
Key: Dm

Fsus4:8,10,11,10,8,8

Fsus4 (start & end of Intro)

--------------------------------------------|-----------------------b8rb--8--|
-11-/13-\11p10---------13--15p13------------|-11-13-11p10-----------b10rb-10-|
---------------12---14------------14--12p10-|-------------12-\10/12-b10rb-11-|
--------------------------------------------|-----------------------b10rb-10-|
--------------------------------------------|--------------------------------|
--------------------------------------------|--------------------------------|

played over:
---1-------0-------0-------1-------1-------0-----1---|-----------------------|
-3---3---1---1---1---1---3---3---3---3---1---1---1---|-----------------------|
-3---3---0---0---2---2---2---2---3---3---0---0---2---|-----------------------|
-------------------------------------------------3---|-----------------------|
-----------------------------------------------------|-----------------------|
-----------------------------------------------------|-----------------------|
Bb	C	Am	Dm       Bb	 C	 F

Continue this lazy ska-beat & this strum pattern through verses:

Bb               C
yuuhi ga yake ni mabushikatta
Am              Dm
nakitai kimochi koraeteta
Bb               C              F
kimi no inai sekai wa nee donna sekai

Bb               C
"sayonara" nante nigate dayo
Am              Dm
"mata ne" tte kotoba dake ga suki
Bb            C          F
honto wa doto aenai kuse ni

e---1-0------|
B-------3-1--|

Dm       Am    Bb C  F
wasureru nante Mu ri dakedo
Dm        Am      Bb    C#
omoide ni mo shitakunainda

F
I NEED YOU
           A
totsuzen suki ni natta
Dm     C        Bb             C
dakedo totsuzen kirai ni nante naranai
F
I NEED YOU
            A
hetakuso na aishi kata
Dm      C     Bb      C
kimochi zenbu tsutaerarenakute go men ne

C# D# F Fsus4

Intro

Bb                C
Me-ru no kazudake ureshikatta
Am                Dm
Me-ru no kazudake aitakatta
Bb             C             F
ashita kara wa sono kazudake nakitakunaru no

Bass riff Verse
-----------------------------------------------------------------------------|
----------------------------------------------------------/9--8-6-5----------|
----------------------------------------------------------/10-9-7-5----------|
-----------------------------------------------------3-----------------------|
-----2--3-----3------4--5-----5------2--3-----3------------------------------|
--3---------3-----5---------5-----3---------3-----1--------------------------|
Played Over:
Bb            C
omoide to ka, konna kimochi
Am                Dm
moshi kokoro kara nakunareba
Bb              C          F
sabishisa datte kieteiku darou

Dm        Am      Bb C  Dm
kimi ga dokoka ni i  ru dakede
Dm        Am    Bb       C#
watashi nara ganbatte ikeru

F
I NEED YOU
         A            Dm        C
doredake no namida wo nagashita nara
Bb            C
shiawase ni nareru no
F
I NEED YOU
           A
itsumademo daisuki
Dm      C      Bb         C
kimi ga ite mo kimi ga inakute mo zutto

Solo:
-------------------------------------||--------------------------------------|
-------------------------------------||--------------------------------------|
-------------------------------------||--------------------------------------|
-------------------------------------||--------------------------------------|
-------------------------------------||--------------------------------------|
--8h10--5p0-3p0-1p0-3p0-5p0-3p0-5h6--||-x2-----------------------------------|

----------------5-6\5---5-6\5--||---------------0-/4----4-/8--|------6-\5--6-|
----------------6-7\6---6-7\6--||---------------2-/6----5-/9--|------7-\6--7-|
-------------------------------||-----------------------------|--------------|
-------------------------------||-----------------------------|--------------|
-3-5---------------------------||-3-5-------------------------|-3-5----------|
-----3---3-1-3-----------x3----||-----3--3-1-3----------------|--------------|

-\5--6--6---6--6----||------------------|---------------------|--------------|
-\6--7--9---7--9----||----------6---6-8-|-----------8----8-10-|--------------|
--------------------||-7-66-7-9---9-----|-9-88-9-11---11------|-10-99-10-----|
--------------------||------------------|---------------------|--------------|
--------------------||------------------|---------------------|--------------|
--------------x2----||------------------|---------------------|--------------|

----------------|----------------------------|-------------13h16-------------|
----9-----9--11-|---------------11----11-13--|-------13h15-------------------|
-12----12-------|-12-1111-12-14----14--------|-13h15-------------------------|
----------------|----------------------------|-------------------------------|
----------------|----------------------------|-------------------------------|
----------------|----------------------------|-------------------------------|

Chorus:
----|---------1-----------5--------------------------------------------------|
----|---------1-----------5--------------------------------------------------|
----|-------2-2---------6-6--------------------------------------------------|
----|-----3---3-------7---7--------------------------------------------------|
----|---3-----3-----7-----7--------------------------------------------------|
----|-1-------1---5-------5--------------------------------------------------|
      ano hi... totsuzen suki ni natta

Dm     C        Bb             C
dakedo totsuzen kirai ni nante naranai
F
I NEED YOU
           A
hetakuso na aishi kata
Dm     C        Bb             C
kimochi zenbu tsutaerarenakute
F
I NEED YOU
	 A
doredake no namida wo
Dm     C        Bb             C
nagashita nara shiawase ni nareru no
F
I NEED YOU
	 A
itsumademo daisuki
Dm      C     Bb      C
kimi ga ite mo kimi ga inakute mo omotteru

C# D# F F
C# D# F

Fsus4
Добавлено: 17.05.2012
Другие материалы по этой песне:
  • Аккорды и текст

Страница создана 17.05.2012
http://primanota.ru/buono/i-need-you-chords.htm
Привет, Гость.
Предлагаем пройти революционный курс по гитаре.
Подарок от PrimaNota.Ru, забирай!