PrimaNota.ru - самый крупный в мире бесплатный архив песенных текстов, аккордов, табулатур и нот


Buono - Gachinko De Ikou - таба, видео

Регистрация Запомнить меня
Войти через:  Facebook Google Twitter Vk Yandex Mail.ru

Buono - Gachinko De Ikou - таба, видео

Печатать
Просмотров: 193
Buono - Gachinko De Ikou
tabbed by manOutOfTime
Key: F#

-----------------------------------------------------------------|-----------|
-----------------------------------------------------------------|-----------|
-11-10-11--/13--11-13-/15--13-11\10-10\8-8-11--10/11-13--/15-/18-|-11-10-11--|
-----------------------------------------------------------------|-----------|
-----------------------------------------------------------------|-----------|
-----------------------------------------------------------------|-----------|


-----------------------------------------------|-----------------------------|
-----------------------------------------------|-----------------------------|
-/13-11-13-/15--13-11\10-10\8--8--11--10/11-13-|-----------------------------|
-----------------------------------------------|-----------------------------|
-----------------------------------------------|-4-4-4-4-4-4-4-4-------------|
-----------------------------------------------|-2-2-2-2-2-2-2-2-------------|

   C#    B     F#           B      C#    D#m
Abarenbou na uchira miru yume ni genkai wa nai yo
(Sou sou sou)
B      C#            F#   D#m-C#      B         C#        F#
Kanousei hyaku-pa de umaretara        hyaku-pa de ikite iku ze

   B          D#m      C#         F#
Naitari warattari shite ironna hito ni deau
    B           D#m       C#
Daiji na mono mitsuketari nakushitari (hai donmai)

F#               D#m    B    C#
Gangan hashitte iketara sono hou ga tanoshii jan (soo jan! soo jan! )
F#              D#m
Are mo shitai kore mo shitai
    B                         C#           B
Iku zo (go! ) susume (oh! ) gachinko de ikou!

     C#    D#m      Bbm      B               D#m
Seka   i ni    hito    ri no   jibun no tame ni
     B      C#       D#m         B        C#       F#
Dai  suki   na ko    to wo kitto kitto mitsukete yare

Intro Riff

   C#    B     F#           B      C#    D#m
Hazukashigari na uchira suru koi wa doki doki shiteiru
(Doki doki doki)
B      C#            F#   D#m-C#      B         C#        F#
Dare mo saisho wa kowagari de doushitara ii ka wakaranai

   B          D#m      C#         F#
Honto no kimochi wa naze ka yase gaman wo shiteiru
    B           D#m       C#
Chigau koto itte mitari iwaretari (hee sou kai)

F#               D#m    B    C#
Gangan hashitte iketara sono hou ga ikiteru jan (donmai! donmai! )
F#              D#m
Are mo hoshii kore mo hoshii
    B                         C#           B
Iku zo (goo! ) susume (oo! ) gachinko de ikou!

     C#    D#m      Bbm      B               D#m
Sou da yo yaru nara ima shika nai
     B      C#       D#m         B        C#       F#
Gaman wa dekinai dakara motto motto shitai

Solo
----------------------------18-18-16-----22-22-21----------------------------|
--17b\\\\\-------------------------------------------21b-21b\18h19-18h19-----|
-------------15-13vvv--------------------------------------------------------|
-----------------------------------------------------------------------------|
-----------------------------------------------------------------------------|
-----------------------------------------------------------------------------|

------------|---------------------18tr--21tr-22btr--<22b-rpt>----------------|
-16tr-14tr--|----------------------------------------------------------------|
------------|----------15tr--------------------------------------------------|
------------|-13tr-----------------------------------------------------------|
------------|----------------------------------------------------------------|
------------|----------------------------------------------------------------|

------------------------------------------------------|----------------------|
-21tr-22tr--21tr-18tr---18-19-18h19p18----------------|----------------------|
---------------------------------------18vvv----------|----------------------|
----------------------------------------------18vv\---|----------------------|
------------------------------------------------------|----------------------|
------------------------------------------------------|----------------------|

   B          D#m      C#         F#
Naitari warattari shite ironna hito ni deau
    B           D#m       C#
Daiji na mono mitsuketari nakushitari (hai donmai)

F#               D#m    B    C#
Gangan hashitte iketara sono hou ga tanoshii jan (soo jan! soo jan! )
F#              D#m
Are mo shitai kore mo shitai
    B                         C#           B
Iku zo (goo! ) susume (oo! ) gachinko de ikou!

     C#    D#m      Bbm      B               D#m
Seka   i ni    hito    ri no   jibun no tame ni
     B      C#       D#m         B        C#       F#
Dai  suki   na ko    to wo kitto kitto mitsukete yare

Intro
Добавлено: 14.03.2012
Другие материалы по этой песне:

Страница создана 14.03.2012
http://primanota.ru/buono/gachinko-de-ikou-chords.htm
Привет, Гость.
Предлагаем пройти революционный курс по гитаре.
Подарок от PrimaNota.Ru, забирай!