PrimaNota.ru - самый крупный в мире бесплатный архив песенных текстов, аккордов, табулатур и нот


Buono - Early Bird - таба, видео

Регистрация Запомнить меня
Войти через:  Facebook Google Twitter Vk Yandex Mail.ru

Buono - Early Bird - таба, видео

Печатать
Просмотров: 152
Авторы музыки: 木之下慶行
Авторы текста: 川上夏季
Early Bird by Buono!
Lyrics: Thanks to Haris at http://berikyuu.blogspot.com/2009/02/buono-2-album-lyrics.html
Tabbed by manOutOfTime

**Intro**
D 	A 	D 	D x2

D       G           Em             A              D   G         Em
ohisama yori mo hayaku heya wo nukedashite isoganakya   (mite!)
        A
sora ni hoshi hitotsu

D       G           Em             A              D   G         Em
tonari no ie no john mo mada yume no naka mitai ne sotto (sootto)
        A
nukiashisashiashi

G                       Gm
kaze tsumetakute namida ga desou yo
F#m                   Bm
dakedo Kimochi wa ano sora to onnaji
G		     Gm
yukkuri akete hikari ga sashiteku
Bm            A
Barairo no morning

 D     A     Bm  G     Bm       A            D
ohayou me ga samete saisho ni aetara iin dakedo na
 D     A     Bm  G     Bm       A            D
ohayou ichiban ni anata ni koe wo todoketakute
G           A               D
nee hora okite nee jikan da yo

**Intro**
D 	A 	D 	D

D       G           Em             A              D   G         Em
kou miete mo neoki wa iihou nanda yo ne Watashi (so-o?)
        A
anata wa douka na
D       G           Em             A              D   G         E
ichidan tobashi nagai kaidan kake nobotte furimukeba (i-ne!)
        A
tobikiri aozora

G                       Gm
asa ga kuru tabi Wakuwaku shichau yo
F#m                   Bm
kyou wa ittai nani ga hajimaru no ka
G                       Gm
sate doko iku? nani shite sugo sou?
Bm            A
soko nuke no morning

 D     A     Bm  G     Bm       A            D
ohayou me ga samete saisho ni anata no koto omou yo
 D     A     Bm  G     Bm       A            D
ohayou ichinichi ga Shiawase de arimasu you ni
G          A               D
hora mou dekakeru jikan da yo

**Solo**
-----------10---10-12-14h15p14-----14h15p14----|-17---17-15-14h15-14---------|
-10v---8p7---------------------15-----------15-|-----------------------------|
-----------------------------------------------|-----------------------------|
-----------------------------------------------|-----------------------------|
-----------------------------------------------|-----------------------------|
-----------------------------------------------|-----------------------------|

-14h15p14p12h14p12p10------------------------|-------------------------------|
----------------------------------------7-7\-|----------------7--/7h8-8------|
---------------------------------4-6--6-7-7\-|-7p6h7-7\--/7-9----------------|
---------------------------4-5-7-------------|-------------------------------|
-----------------------5-7-------------------|-------------------------------|
---------------------------------------------|-------------------------------|

---------------------------|-------------------------|-----------------------|
-7h8p7p5h7p5p3h5-----------|------------------7---10-|-----------------------|
-----------------7h9p7p6h7-|-/4--/6--/7--\4----------|-----------------------|
---------------------------|-------------------------|-----------------------|
---------------------------|-------------------------|-----------------------|
---------------------------|-------------------------|-----------------------|

 D     A     Bm  G     Bm       A            D
ohayou me ga samete saisho ni aetara iin dakedo na
 D     A     Bm  G     Bm       A            D
ohayou ichiban ni anata ni koe wo todoketakute
 D     A     Bm  G     Bm       A            D
ohayou me ga samete saisho ni anata no koto omou yo
 D     A     Bm  G     Bm       A            D
ohayou ichinichi ga Shiawase de arimasu you ni
G          A               D
hora mou dekakeru jikan da yo

**Intro**
D 	A 	D 	D x2
D
Добавлено: 30.06.2012
Другие материалы по этой песне:
  • Аккорды и текст

Страница создана 30.06.2012
http://primanota.ru/buono/early-bird-chords.htm
Привет, Гость.
Предлагаем пройти революционный курс по гитаре.
Подарок от PrimaNota.Ru, забирай!