PrimaNota.ru - самый крупный в мире бесплатный архив песенных текстов, аккордов, табулатур и нот


Buono - Dreamin - таба, видео

Регистрация Запомнить меня
Войти через:  Facebook Google Twitter Vk Yandex Mail.ru

Buono - Dreamin - таба, видео

Печатать
Просмотров: 119
Dreamin (live)
by Buono!
tabbed by manOutOfTime
Key: E

INTRO x2
-----------------|-----------------|-----------------|---------------------|-|
-----------------|-----------------|-----------------|---------------------|-|
-9---9---9--9----|-9---9---9--9-11-|-9---9---9--9----|-9---9--1313-11-9-11-|-|
-999-999-9999-99-|-999-999-9999-11-|-999-999-9999-99-|-999-99-1313-11-9-11-|-|
-799-799-7997-99-|-799-799-7997-9--|-799-799-7997-99-|-799-99-1111-9--7-9--|-|
--77--77--77--77-|--77--77--77-----|--77--77--77--77-|--77--7--------------|-|

CHORUS x2
-----------------|------------------|------------------|-------------------|-|
-----------------|------------------|------------------|---------------10-9|-|
-9-----999-------|---------55555555-|-66666666---------|----------------9-8|-|
-9-----999-------|-9999999955555555-|-6666666699999999-|-777777--77777--7-6|-|
-7-----777-------|-9999999933333333-|-4444444499999999-|-777777--77777-----|-|
-----------------|-77777777---------|---------77777777-|-555555--55555-----|-|
E                  B       Cm         C#m     B          A       A

VERSE x2
-----------------|----------------|----------------|--------------------|-----|
-777777777777----|----------------|----------------|----------------10-9|-----|
-666666666666-11-|-666666666666-6-|-777777777777-9-|-----------------9-8|-----|
-444444444444-11-|-666666666666-6-|-777777777777-9-|-9-xxxxxxxxxxxx--7-6|-----|
--------------9--|-444444444444-4-|-555555555555-7-|-9-xxxxxxxxxxxx-----|-----|
-----------------|----------------|----------------|-7-xxxxxxxxxxxx-----|-----|
 F#          /F#5  C#m       /C#5   Dm          /E5  B

CHORUS x2

VERSE x2

CHORUS x2

SOLO
------------|-----------------------|-----------------------------------|-----|
-9-8p6-8-9--|-8/1717----14----------|-1717------------------------------|-----|
------------|--------16-------------|-----16161313-------------13b14r14-|-----|
------------|--------------16-1414v-|-------------1414-1616-14----------|-----|
------------|-----------------------|-----------------------------------|-----|
------------|-----------------------|-----------------------------------|-----|

-----------------------1416171614-171614-|-19b22-19b22r19-19-17-16-17-16-14---|
----------------171717-------------------|------------------------------------|
-13/14-16161616--------------------------|------------------------------------|
-----------------------------------------|------------------------------------|
-----------------------------------------|------------------------------------|
-----------------------------------------|------------------------------------|

-16b-|-12-14b15v--------------------|-11-12-11-9-11-12-11-9-11-12-11-9-----|--|
-----|----------------------14-1414-|----------------------------------9t10|--|
-----|-------------11-13-14---------|--------------------------------------|--|
-----|------------------------------|--------------------------------------|--|
-----|------------------------------|--------------------------------------|--|
-----|------------------------------|--------------------------------------|--|

-----------------------------------|-----------------------|------------------|
-12b14-14v--10---------------------|------------------9-10-|------------------|
---------------13-11p9-11-9-8------|---11---9-11-9-11------|------------------|
------------------------------11-9-|-9----9----------------|------------------|
-----------------------------------|-----------------------|------------------|
-----------------------------------|-----------------------|------------------|

------------------------------|-----------------------------------------------|
-12tr-14tr-16tr-17tr-19b21\\\-|-----------------------------------------------|
------------------------------|-----------------------------------------------|
------------------------------|-----------------------------------------------|
------------------------------|-----------------------------------------------|
------------------------------|-----------------------------------------------|

VERSE x2

CHORUS x2

INTRO x2
Добавлено: 16.08.2013
Другие материалы по этой песне:
  • Аккорды и текст

Страница создана 16.08.2013
http://primanota.ru/buono/dreamin-chords.htm
Привет, Гость.
Предлагаем пройти революционный курс по гитаре.
Подарок от PrimaNota.Ru, забирай!