PrimaNota.ru - самый крупный в мире бесплатный архив песенных текстов, аккордов, табулатур и нот


Buono - Co No Mi Chi - таба, видео

Регистрация Запомнить меня
Войти через:  Facebook Google Twitter Vk Yandex Mail.ru

Buono - Co No Mi Chi - таба, видео

Печатать
Просмотров: 189
Авторы музыки: つんく♂
Авторы текста: 三浦徳子
Buono! - Bo No Mi Chi (This Road)
tabbed by manOutOfTime (neil_willey@hotmail.com)
Message me for Hello!Project tab requests
**Updated: more accurate**

Key: F#m (chorus) & F# (verse)

CHORUS
D      E       F#m
kono michi aruiteku yo
D        E       A
nani ga arou to mo
D          E       F#m
bokutachi chikara awaseta toki
D        E         A
nani ka ga kawaru sa

A A A AAA D D D DDD A A A AAA D D E E

VERSE
F#          Bbm
zettai tte kotoba wo ne
     B              F#
kimi wa sugu tsukau keredo
B       Bb       D#m  G#m
mou sukoshi dake kangaeyou
B                  C#
sore shika dekinai no ka

VERSE II
F#            Bbm
bimyou na kokoro no ugoki
       B            F#
wakaru you ni natte kita yo ne
B       Bb       D#m
jibun no jitsuryoku nante mon mo
B           Bb    D#m
daishi ta koto naishi

BRIDGE
B               C#
ippon dake ja mirechau yumi yamo
B                 C#
sanbon yuuki hyakubai

B B C#

CHORUS
D     E       F#m
konomichi aruiteku yo
D       E       A
ke washii michi demo
D         E      F#m
bokutachi kokoro awaseru toki
D       E         A
nani ka ga kawaru yo

A A A AAA D D D DDD A A A AAA D D E E

VERSE
F#          Bbm
kaigan oshi yoseru nami
     B            F#
onaji koto kurikaeshiteru
B       Bb        D#m        G#m
anna ni kataku kanjou na iwa mo
B           Bb    D#m
MOAI zou ni shichau

BRIDGE
B               C#
bokura shizen sore no ichibubun
B                  C#
chicchakute kawaii yo

CHORUS
D      E       F#m
kono michi aruitekeba
D        E       A
subete ga kirameku
D          E       F#m
sokora juu ni matteru fushigi
D        E         A
SHAWAA mitai da ne

SOLO
-------------|-------------------------||------------------------------------|
------4bvvr4-|-------------------------||------------------------------------|
------4bvvr4-|-7-7-7---2-2-2-----------||-7-7-7---2-2-2----------------------|
-------------|-7-7-7---2-2-2---4-4-----||-7-7-7---2-2-2---4-2-4-2-4----------|
-------------|-5-5-5---0-0-0---4-4-----||-5-5-5---0-0-0---4-2-4-2-4----------|
-2-2---------|-----------------2-2-----||-----------------2-0-2-0-2--x2------|

-----||--------------------------------------|--------------------------------|
-----||-15-15--14---14141414--10-10---9vvvvv-|--------------------------------|
-----||-14-14--13---13131313--11-11--10vvvvv-|--------------------------------|
-----||--------------------------------------|--------------------------------|
-----||--------------------------------------|--------------------------------|
-----||--------------------------------------|--------------------------------|
D      E       F#m
kono michi aruiteku yo
D        E       A
nani ga arou to mo
D          E       F#m
boku tachi chikara awaseta toki
D        E         A
nani ka ga mieru sa

D      E       F#m
kono michi aruitekeba
D        E       A
subete ga kirameku
D          E       F#m
sokora juu ni matteru fushigi
D        E         A
SHAWAA mitai da ne

D      E       F#m
sokora juu ni hajiketeru mirai
D        E       A
kono te de tsukamou

A A A AAA D D D DDD x4
E       A
Добавлено: 13.03.2012
Другие материалы по этой песне:
  • Аккорды и текст

Страница создана 13.03.2012
http://primanota.ru/buono/co-no-mi-chi-chords.htm
Привет, Гость.
Предлагаем пройти революционный курс по гитаре.
Подарок от PrimaNota.Ru, забирай!