PrimaNota.ru - самый крупный в мире бесплатный архив песенных текстов, аккордов, табулатур и нот


Buono - Cafe Buono - таба, видео

Регистрация Запомнить меня
Войти через:  Facebook Google Twitter Vk Yandex Mail.ru

Buono - Cafe Buono - таба, видео

Печатать
Просмотров: 195
Авторы музыки: 木之下慶行
Авторы текста: 川上夏季
Cafe Buono by Buono!
tabbed by manOutOfTime (neil_willey@hotmail.com

E5     XX997X
C(no5) XX896X

------------------------------------------------||-------------|-------------|
-----------------------------9-\10--9-----------||-------------|-------------|
---9-11-9------9--------9-11----------9------11-||-999--99--99-|-------------|
-9--------\8--------\11--------------------9----||-999--99--99-|-------------|
------------------------------------------------||-777--77--77-|-------------|
---------------------------------------------x2-||-------------|-------------|

E5	      C(no5)   C#5	             G#5
Ciao! Nee shitteru? Ano kado magareba hora
  A5 	   B5     G#5   C#      A5           B5
KURASU no minna UWASA shiteru KAFE ga aru tte
E5	         C(no5)   C#5	           G#5
Ciao! Douzo kochira e kanban musume wa sou
  A5 	   B5      G#5   C#      A5      E5
machi de ICHIBAN KYUUTO na ATASHI no koto

C#m 	       B
DOONATTSU to KAFERATTE
G#	      C#m
CHOKO MINTO AISU
A	        Bb
NAPORITAN ato OMURAISU
B	  		       E
PITTSHA MARUGERIITA mo osusume!

E		        B      C#m               E
HARAPEKO ni nattara Buono! Genki waite kuru aikotoba
A        G#m            C#m    A  F#m          B
nayan de mo hekon de ite mo sugu egao ni natte ku yo
E		        B   C#m               E
toriaezu oide yo Buono! Donna toki datte DAIJOUBU
A        G#m         C#m A  F#m                E
itsu datte koko ni iru kara dakara saa meshiagare

**Intro Riff**

E5	           C(no5) C#5	           G#5
Onaka ga michi tara HAATO mo michite kutte
  A5 	    B5      G#5   C#      A5           B5
ichiryuu SHEFU mo tajitaji no PAPA no kuchiguse
E5	      C(no5) C#5	           G#5
ippai tabetara bijin ni nareru yo tte
  A5 	        B5     G#5   C#      A5      E5
kuishinbou de KIREI na MAMA mo itteru

C#m 	     B
ESUPURESSO iretara
G#	    C#m
PASUTA no junbi
A	        Bb
OOBUN kara aa ii nioi
B	  		E
tsumamigui chotto ja tarinai

E		        B      C#m               E
Hoppe ga ochi sou da yo Buono! Are mo dore mo kore mo tabetai
A        G#m         C#m A  F#m          B
shiawase no MENYUU no RESHIPI mada dare ni mo naisho da yo
E		        B      C#m               E
oishii kao ga suki Buono! Gochisousama ni wa mada hayai
A        G#m         C#m A  F#m          E
Hachibunme? Sonna koto iwanai de saa meshiagare

**Solo**
------------------------------------------|---------------------|------------|
-2-2-2---2-2---2-4--2-4--2-4--4/5\4-2--4--|-2-2-2---2-4-2-4-----|------------|
-2-2-2---2-2---2-4--2-4--2-4--4/5\4-2--4--|-2-2-2---2-4-2-4-----|------------|
-2-2-2---2-2---2-2--2-2--2-2--------2--2--|-2-2-2---2-2-2-2-----|------------|
------------------------------------------|---------------------|------------|
------------------------------------------|-----------------x3--|------------|

-----------------------------------------------------------------------------|
-5--7--9--10--12-------------------------------------------------------------|
-4--6--8--9---11-------------------------------------------------------------|
-2--4--6--7---9--------------------------------------------------------------|
-----------------------------------------------------------------------------|
-----------------------------------------------------------------------------|

E		        B      C#m               E
HARAPEKO ni nattara Buono! Genki waite kuru aikotoba
A        G#m         C#m A  F#m          B
nayan de mo hekon de ite mo sugu egao ni natte ku yo
E		        B      C#m               E
toriaezu oide yo Buono! Donna toki datte DAIJOUBU
A        G#m         C#m A  F#m          E
itsu datte koko ni iru kara dakara saa meshiagare

**Intro Riff**

E5
Добавлено: 15.03.2012
Другие материалы по этой песне:

Страница создана 15.03.2012
http://primanota.ru/buono/cafe-buono-chords.htm
Привет, Гость.
Предлагаем пройти революционный курс по гитаре.
Подарок от PrimaNota.Ru, забирай!