PrimaNota.ru - самый крупный в мире бесплатный архив песенных текстов, аккордов, табулатур и нот


Buono - Buonos Theme - таба, видео

Регистрация Запомнить меня
Войти через:  Facebook Google Twitter Vk Yandex Mail.ru

Buono - Buonos Theme - таба, видео

Печатать
Просмотров: 193
We are Buono!~Buono! no Te-ma
Buono
tabbed by manOutOfTime
updated: chorus chords
Keys: F & G

F5 F5  D#5 D#5 D#5 x4

Go!

F5 F5  D#5 D#5 D#5 x4

furikitte kachi! egao 100% (hyakupa)

F5 F5  D#5 D#5 D#5 x2

"Aidoru" datte nameten jane-zo

F5 F5  D#5 D#5 D#5 x2

susume Low susume 2nd

F5 F5  D#5 D#5 D#5 x2

susume 3rd susume Top

F

Bb            F
I LOVE MUSIC! We are Buono!
Gm            Am     Dm     C
sekai no hate made todoke Merodi-
Bb            F      Dm
I LOVE MUSIC! We are Buono!
Bb          C
Negattari Kanattari no

F F F F F  F    F  F  F E5-F
B.u.o.n.o! Rock'n Roll "Doki"
F F F F F
B.u.o.n.o!

D----------------|
A----------------|
E-8--8-66-55-33--|
"Buono!"

F-Bb              F-Bb      F-Bb       C     Dm
yaritai koto shiritai koto mada mada takusan atte
F-Bb            F-Bb            F-Bb           C     Dm
Gita- wo narase Be-su yo hibike Doramuzun Takatatta kizame
Gm    C
hoshi wo mogitore

F5 F5  D#5 D#5 D#5 x3

D# F F# G

--16---16---16-------------------------------------|---------------------|---|
--19b--19b--19b--20btr-r19-----16-19-16------------|-21tr-19tr------19tr-|---|
---------------------------18b---------18b----16v\-|-----------20tr------|---|
-------------------------------------------18------|---------------------|---|
---------------------------------------------------|---------------------|---|
---------------------------------------------------|---------------------|---|
                                             "Airi!"               x2

-16/19\16/19---------------------------------|------------------------|------|
-------------16/19\16/19---------------------|------------------88----|------|
-------------------------16/18\16/18---------|---5---5---7-5-7b----r7-|------|
-------------------------------------16/18\4-|-7---7------------------|------|
---------------------------------------------|------------------------|------|
---------------------------------------------|------------------------|------|
                                    "Miyabi!"

------------------------|--------------------------------9--------|----------|
------------------------|-111111-10/1111-10/1111-10/1111---111111-|----------|
-5h7h8r5---------5*7----|-101010-9-/1010-9-/1010-9-/1010---101010-|----------|
----------7-5-7-------7-|-8-8-8--7-/8-8--7-/8-8--7-/9-9----8-8-8--|----------|
------------------------|-----------------------------------------|----------|
------------------------|-----------------------------------------|----------|
                "Momoko!"

-------------10-13-10-13v-----------------------|----------------------------|
-11-12-13-14------------------------------------|----------------------------|
------------------------------------------------|----------------------------|
------------------------------------------------|----------------------------|
------------------------------------\\\\\\\\\---|----------------------------|
-------------------------------------\\\\\\\\\--|----------------------------|
                         *feedback**pickscrape*

D-----------------|
A-8------888------|
E---6-66-----6-66-|

F

Bb            F
saikou MUSIC! saikou Buono!
Gm            Am     Dm     C
uchuu no hate made sakebe Merodi-
Bb              F      Dm
saikyou MUSIC! saikyou Buono!
Bb        C
Negattari Kanattari no

F F F F F  F    F  F  F E5-F
B.u.o.n.o! Rock'n Roll "Doki"
F F F F F
B.u.o.n.o!

D----------------|
A----------------|
E-8--8-66-55-33--|
"Buono!"

F-Bb              F-Bb      F-Bb       C     Dm
yaritai koto shiritai koto mada mada takusan atte
F-Bb            F-Bb            F-Bb           C     Dm
Gita- wo narase Be-su yo hibike Doramuzun Takatatta kizame
G-C               G-C      G-C       D     Em
yaritai koto shiritai koto mada mada takusan atte
G-C             G-C            G-C           D     Em
Gita- wo narase Be-su yo hibike Doramuzun Takatatta kizame
Am   D
yume wo tsuranuke!!!

G5 G5 F5 F5 F5 F5 x8
ROCK zenkai Buono!

G5
Добавлено: 10.04.2012
Другие материалы по этой песне:
  • Аккорды и текст

Страница создана 10.04.2012
http://primanota.ru/buono/buonos-theme-chords.htm
Привет, Гость.
Предлагаем пройти революционный курс по гитаре.
Подарок от PrimaNota.Ru, забирай!