PrimaNota.ru - самый крупный в мире бесплатный архив песенных текстов, аккордов, табулатур и нот


Buono - Bravo Bravo - таба, видео

Регистрация Запомнить меня
Войти через:  Facebook Google Twitter Vk Yandex Mail.ru

Buono - Bravo Bravo - таба, видео

Печатать
Просмотров: 174
Авторы музыки: つんく♂
Авторы текста: 三浦徳子
Buono! - Bravo Bravo
Tabbed by manOutOfTime

Key: F

F
P-A-T-I (3x)

C#5 D5 D#5 F5 x2

--------------------------------------------|----------|-------------|----|
-----------------------------------------11-|----------|-11b13-11----|----|
-10b12r10vvv--10b12r10vv--10b12-10-12-14----|-14-12-10-|----------14-|----|
--------------------------------------------|----------|-------------|----|
--------------------------------------------|----------|-------------|----|
--------------------------------------------|----------|-------------|----|
                                              1st&3rd    2nd

-x-x--x--xxx--xx-x-xxxx---------------------------------------------------|
-x-x--x--xxx--xx-x-xxxx---------------------------------------------------|
-x-x--x--xxx--xx-x-xxxx---------------------------------------------------|
-x-x--x--xxx--xx-x-xxxx---------------------------------------------------|
-x-x--x--xxx--xx-x-xxxx---------------------------------------------------|
-x-x--x--xxx--xx-x-xxxx---------------------------------------------------|

F               C        Bb     F
kimi ni hakushu wo okuro okuritai
F               C        Bb
kimi ni hakushu wo okutchae

-xx-x-xxxx-------------------------------------------------------------|
-xx-x-xxxx-------------------------------------------------------------|
-xx-x-xxxx-------------------------------------------------------------|
-xx-x-xxxx-------------------------------------------------------------|
-xx-x-xxxx-------------------------------------------------------------|
-xx-x-xxxx-------------------------------------------------------------|

F               C        Bb     F
boku ni hakushu wo okuro okuritai
F               C        Bb
boku ni hakushu wo okutchae

  Am                Dm
hajimete kiita kimi no okina yume
Gm                    C
koko ja nai dokoka ni tobidasu tte koto nandane

F               C            Bb
sou kono chikyu no honno ichibu shika
                Dm         C
mada shiranai tte hanasu kimi ga iru
F              C              Bb
nee sono manazashi shinken na kimochi
            F   Dm  C  F      C
omowazu HEART dokidoki ugokidashita yo
   F
BRAVO

-1111111111111--0-|-111111111111---|--------------------------------------|
-1111111111111--0-|-111111111111---|--------------------------------------|
-2222222222222--0-|-222222222222---|--------------------------------------|
-3333333333333--0-|-333333333333---|--------------------------------------|
-3333333333333--0-|-333333333333---|--------------------------------------|
-1111111111111--0-|-111111111111---|--------------------------------------|

F               C        Bb     F
boku ni hakushu wo okuro okuritai
F               C        Bb
boku ni hakushu wo okutchae
F               C        Bb     F
kimi ni hakushu wo okuro okuritai
F               C        Bb
kimi ni hakushu wo okutchae

  Am                Dm
nantonaku sugite itchau mainichi de
Gm                    C
saki no koto nante ima made nanimo ki ni shite nai

F               C             Bb
sou katachi no nai yume nara aru kedo
             Dm        C
nani wo do suruka wa korekarasa
F               C              Bb
nee tabidatsu kimi doko ni ittemo so
            F   Dm  C  F      C
onnaji sora no shita ni iru oen suru yo
   F
BRAVO

P-A-T-I (4x)

------------------8tr-6tr-----------/11tr-10tr-------------15tr--------15tr--|
-----5tr-8tr-5------------8tr\-----------------11tr----------------16tr------|
-5tr------------------------------------------------12\--------15tr----------|
-----------------------------------------------------------------------------|
-----------------------------------------------------------------------------|
-----------------------------------------------------------------------------|
SOLO

-------------------------------10-12-15----------15-----------|--------------|
----------------------10-12-13----------15-17-------15-17-----|--------------|
-9h10r9-7-9---9-10-12-------------------------17----------17\-|--------------|
--------------------------------------------------------------|--------------|
--------------------------------------------------------------|--------------|
--------------------------------------------------------------|--------------|

F             C               Bb
sou ichinengo ni kimi wa doko ni ite
             F      C
donna kao ni natterudarou nee

F               C           Bb
sou kimi ga kureta kangaeru HINT
              F       C
chanto uketometai to omou yo
F               C             Bb
sou kawaru koto wo osorezu ni hashiru
            F   Dm  C  F      C
kyo kara kono shunkan'kara okiku JUMPU
   F
BRAVO

Intro Riff

P-A-T-I (2x)

C5 C#5 D5 D5 x2
E5
Добавлено: 01.04.2012
Другие материалы по этой песне:
  • Аккорды и текст

Страница создана 01.04.2012
http://primanota.ru/buono/bravo-bravo-chords.htm
Привет, Гость.
Предлагаем пройти революционный курс по гитаре.
Подарок от PrimaNota.Ru, забирай!