PrimaNota.ru - самый крупный в мире бесплатный архив песенных текстов, аккордов, табулатур и нот


Buono - Blue Sky Blue - аккорды и текст, видео

Регистрация Запомнить меня
Войти через:  Facebook Google Twitter Vk Yandex Mail.ru

Buono - Blue Sky Blue - аккорды и текст, видео

Печатать
Просмотров: 131
Уроки эстрадного вокала в Санкт-Петербурге
Blue Sky Blue
Buono
Blue Sky Blue
by Buono!
tabbed by manOutOfTime
updated
key: F

------------------------|
-10hb11r10-8----8-10----|
-------------10------10-|
------------------------|
------------------------|
------------------------|

*Intro*
F	C	Am	Bb
F	C	Bb

*Verse*
F                  Gm
Sky Kimi ga okutte kureta no wa
Dm	   C
Fly Shikakui aoi sora

------------|------------|--------------|-----------|
-8-----8----|-8-----8----|-10-----10----|-8-----8---|
---10----10-|---10----10-|----10-----10-|---9-----9-|
------------|------------|--------------|-----------|
------------|------------|--------------|-----------|
------------|------------|--------------|-----------|
F                  Gm		Dm                  C
Light Miagereba onaji sora ga   Delight Koko ni mo arunda ne

*Bridge*
   Dm                 Am       Bb
Isogiashi de sugiteku mainichi no naka de
--------------------------|
--------------------------|
-101010-\9-\7-\5-5vvv-----|
--------------------------|
--------------------------|
--------------------------|
 Dm           Am                  Bb       C CC
Ironna koto wasuresou ni natte shimau yo

*Chorus*
     F           C        Dm      C
Boku ga kaeru no wa Kimi no iru tokoro
Am      Bb        Am           Gm                C
Nagai nagai michi no tochuu de samayoi tsuzukete mo
    F          C       Dm        C
Kawarazu aru mono kawatte yuku mono
Am       Bb        Am            Gm              C
Mirai mo kako mo subete wa kono onaji sora no shita

---5----5---5/13--12----|---5----5--5/13--12---------------------|
-6----6--------------13-|-6----6--------------13-13vvvvvvvvv\\\\-|
------------------------|----------------------------------------|
------------------------|----------------------------------------|
------------------------|----------------------------------------|
------------------------|----------------------------------------| x2
          Dm   F         Bb   C
Kokoro no oku ni Kiritorareta Blue
Dm	F	C

*Verse*
F               Gm
Mine Ima nara wakaru ki ga suru
Dm                   C
Alive Dokoka de mita kotoba

---5---5----5---5-|----6---6---6---6-|---5---5----5---5-|---3---3---|
-6---6---66---6---|-66---6---66--6---|-6---6---66---6---|-55--5---5-|
------------------|------------------|------------------|-----------|
------------------|------------------|------------------|-----------|
------------------|------------------|------------------|-----------|
------------------|------------------|------------------|-----------|
F                    Gm			Dm              C
Why Jiyuu to senaka awase ni 		Away Kodoku wa aru tte


*Bridge*
      Dm      Am        Bb
Fukai yami no naka de jitto me wo koraseba

--------------------------|
--------------------------|
-101010-\9-\7-\5-5vvv-----|
--------------------------|
--------------------------|
--------------------------|

     Dm          Am          Gm           C CC
Soko ni aru hikari wa yagate azayaka ni

*Chorus*
     F           C        Dm      C
Boku ga kaeru no wa Kimi no iru tokoro
Am   Bb       Am       Gm                    C
Omoi wa kyori mo jikan sae mo tobikoete yukunda
     F           C        Dm      C
Jibun dake ja naku dareka no tame ni ne
Am    Bb         Am               Gm       C
Ikite kutte koto mo warukunai sou omoete kuru

---5----5---5/13--12----|---5----5--5/13--12---------------------|
-6----6--------------13-|-6----6--------------13-13vvvvvvvvv\\\\-|
------------------------|----------------------------------------|
------------------------|----------------------------------------|
------------------------|----------------------------------------|
------------------------|----------------------------------------| x2
          Dm   F            Bb   C
Kono ooki na sora Kimi mo miteru Blue

*Solo*
-16-15-16----15-------15-------------------------------------------------|
----------16-------16---16-----------------------------------------------|
----------------17--------17--15-1715---1715---1715---17-15----17-15-----|
----------------------------18-------18-----18-----18-------18-------18v-|
-------------------------------------------------------------------------|
-------------------------------------------------------------------------|
 Ab

----------------------|
----------13----------|
----14-15----15-14----|
-15----------------15-|
----------------------|
----------------------|
 F

-----------------------------|------14-14-16-16-19-19\-|
----------13-14-16-13--------|--/16--------------------|
-15-15-15-------------13-----|-------------------------|
-----------------------------|-------------------------|
-----------------------------|-------------------------|
-----------------------------|-------------------------|
 Bb	        Ab		    F

---|-11-----|----|-13-----|---|-13-----|-/15-----------|
---|---13---|----|---15---|---|---15---|------17-------|
-13|-----13-|-/15|-----15-|-15|-----15-|----------17vv-|
---|--------|----|--------|---|--------|---------------|
---|---x5---|----|----x5--|---|----x5--|---------------|
---|--------|----|--------|---|--------|---------------|
 Ab            Bb           Bb            C

*Chorus*
     F           C        Dm      C
Boku ga kaeru no wa Kimi no iru tokoro
Am      Bb        Am           Gm                C
Nagai nagai michi no tochuu de samayoi tsuzukete mo
     F           C        Dm      C
Kawarazu aru mono kawatte yuku mono
Am       Bb        Am            Gm              C
Mirai mo kako mo subete wa kono onaji sora no shita

-------8---8/13-12----|-------8---8/13-12-----|
----10-------------13-|----10-------------13--|
-10-------------------|-10--------------------|
----------------------|-----------------------|
----------------------|-----------------------|
----------------------|-----------------------|
          Dm  F          Bb   C
Kokoro no oku ni Kiritorareta Blue

*Outro*
-----------8-|--8-/13--12-13-15-|-15vv-13-15vvv-|--13-15-17-17vvv\\-----|
------10-----|------------------|---------------|-----------------------|
-10----------|------------------|---------------|-----------------------|
-------------|------------------|---------------|-----------------------|
-------------|------------------|---------------|-----------------------|
-------------|------------------|---------------|-----------------------|
 Dm             F                Bb                       C

-13-12-13--15\-|-13-12-13-15\-|-13-12-13-15-17-15-|-17b18r17\15-13-15--|
---------------|--------------|-------------------|--------------------|
---------------|--------------|-------------------|--------------------|
---------------|--------------|-------------------|--------------------|
---------------|--------------|-------------------|--------------------|
---------------|--------------|-------------------|--------------------|
        Dm             F        Bb                  C

-17-15--13\\-|-17-15-13\\-|-17-15-13-12-13vvv-|-10-12-10h12p10-8vv-8\--|
-------------|------------|-------------------|------------------------|
-------------|------------|-------------------|------------------------|
-------------|------------|-------------------|------------------------|
-------------|------------|-------------------|------------------------|
-------------|------------|-------------------|------------------------|
     Dm            F        Bb                      C

-555-5-5-|-/8-10-8--|-12--13-15-171717--|-/20--20-20b22-20-20b22--|
---------|----------|-------------------|-------------------------|
---------|----------|-------------------|-------------------------|
---------|----------|-------------------|-------------------------|
---------|----------|-------------------|-------------------------|
---------|----------|-------------------|-------------------------|
 Dm            F         Bb                C

-17h20b22-17h20b22-17h20b22-|-rpt-|-20b25--20-17-15-17-|-15-17vvv-1517-1517-|
----------------------------|-----|--------------------|--------------------|
----------------------------|-----|--------------------|--------------------|
----------------------------|-----|--------------------|--------------------|
----------------------------|-----|--------------------|--------------------|
----------------------------|-----|--------------------|--------------------|
 Dm                           F     Bb                   C

-15b17-15b17-15b17-|-rpt------20tr-22tr-|-22btr-20-17-|-18p17--15h17---|
-------------------|--------------------|-------------|----------------|
-------------------|--------------------|-------------|----------------|
-------------------|--------------------|-------------|----------------|
-------------------|--------------------|-------------|----------------|
-------------------|--------------------|-------------|----------------|
 Dm                  F                    Bb            C

-15p13-15-13--------|
--------------------|
--------------------|
--------------------|
--------------------|
--------------------|
 Dm
Добавлено: 15.04.2012
Другие материалы по этой песне:
  • Аккорды и текст

Страница создана 15.04.2012
http://primanota.ru/buono/blue-sky-blue-chords.htm
Привет, Гость.
Предлагаем пройти революционный курс по гитаре.
Подарок от PrimaNota.Ru, забирай!