PrimaNota.ru - самый крупный в мире бесплатный архив песенных текстов, аккордов, табулатур и нот


Buono - Baketsu No Mizu - аккорды и текст, видео

Регистрация Запомнить меня
Войти через:  Facebook Google Twitter Vk Yandex Mail.ru

Buono - Baketsu No Mizu - аккорды и текст, видео

Печатать
Просмотров: 99
Baketsu No Mizu
Buono
BAKETSU NO MIZU 
by BUONO! 
tabbed by manOutOfTime

C#   BBBB  x4

C#         G#     Bbm   F#
BAKETSU no mizu ga afure sou atashi no KOKORO no naka no
C#         G#     Bbm   F#
me ga samete SHAWAA wo abite mata ichinichi ganbatte kurasu

C#         G#     Bbm   F#
KOKORO ni hitotsu zutsu minna sore wo motte ikiteru rashii
C#         G#     Bbm   F#
kanashii koto ureshii koto ureshii hodo munashii koto etc
C#         G#     Bbm   F#
shizuku ni natte ochite kuru

    Fm                D#m           Fm                     F#
All right kyou wa sukoshi dake mizu wo koboshite karuku shimashita

   C#            G#             Bbm             F#
NAITE × NAITE NAITE × NAITE KOKORO ni mizu ga tamatte
   C#            G#             Bbm             F#
WARATTE × WARATTE WARATTE × WARATTE afurechai sou ni natte
  D#m            Bbm     B       G#  
kimi wa daijoubu desu ka konna kirei na tsukiyo wa…

C#   BBBB x2

C#         G#     Bbm   F#
BAKETSU no mizu wa mainichi suteta hou ga ii mitai desu
C#         G#     Bbm   F#
na no ni DAME na kono atashi wa tsuitsui ippai ni shite shimatte
C#         G#     Bbm   F#
jinsei wo dainashi ni shiteru

    Fm            D#m             Fm                F#
Oh yeah atashi no mune no BAKETSU wa kitto chiisame darou

   C#            G#             Bbm             F#
NAITE × NAITE NAITE × NAITE KOKORO ni mizu ga tamatte
     C#               G#             Bbm             F#
WARATTE × WARATTE WARATTE × WARATTE afurechai sou ni natte
  D#m            Bbm              B              G#  
kimi wa daijoubu desu ka hoshi mo ouen shiteru kedo

SOLO
--------------------|-------------------------|-------------------------------|
-9------------------|-------------------------|-------------------------------|
-11b13vvvv---6vvv\--|--6--8--68---8b9r8-8--6--|-------------------------------|
--------------------|-8--8--8----------8--8---|-------------------------------|
--------------------|-------------------------|-------------------------------|
--------------------|-------------------------|-------------------------------|
C#                     F#         F#m

-----------------------------|--------------------|-----------------------|---|
-----9vvvv--9/11-9-----------|------14---16---18--|-19--------------------|---|
-/10---------------10p8-6vvv-|-6/13-13---15---17--|-21b-------------------|---|
-----------------------------|--------------------|-------18--15--13---11-|---|
-----------------------------|--------------------|-----------------------|---|
-----------------------------|--------------------|-----------------------|---|
Fm          Bbm                       F#                  G#

-------------------|--------------------------|---11-11b12-11b12vv-11h12p11---|
-------------------|------------11-14-14vv-11-|-14-------------------------14-|
-8/10/13-----------|-8h9h10/13----------------|-------------------------------|
---------8-11-11-8-|--------------------------|-------------------------------|
-------------------|--------------------------|-------------------------------|
-------------------|--------------------------|-------------------------------|
C#                                 F#             F#m

-11h13-16--vvvvv-11-----|-------8/9-8-------|---9----11-11b12r11-11-9-11--9vvv|
-------------------14\\-|-9-11--------11\-9-|-11---11-------------------11----|
------------------------|-------------------|---------------------------------|
------------------------|-------------------|---------------------------------|
------------------------|-------------------|---------------------------------|
------------------------|-------------------|---------------------------------|
 Fm                Bbm         F#           G#                         A

A               E
Koko wa doko de atashi wa dare?
F#m                            E
asa mo hiru mo yoake mo itsumo omou
A              E             
sore wa sou to ashita wa doko?
F#                               B       G#
ame ni hare ni semishigure ni omou

   C#            G#             Bbm             F#
NAITE × NAITE NAITE × NAITE KOKORO ni mizu ga tamatte
   C#            G#             Bbm             F#
WARATTE × WARATTE WARATTE × WARATTE afurechai sou ni natte
  D#m            Bbm     B             G#  
kimi wa DAIJOUBU desu ka hitoribocchi demo

   C#            G#             Bbm             F#
NAITE × NAITE NAITE × NAITE KOKORO ni mizu ga tamatte
   C#            G#             Bbm             F#
WARATTE × WARATTE WARATTE × WARATTE afurechai sou ni natte
  D#m            Bbm     B       G#
kimi wa daijoubu desu ka konna kirei na tsukiyo wa…

C#   B B B B  x3
C#   BB BB B C C#
Добавлено: 20.06.2013
Другие материалы по этой песне:
  • Аккорды и текст

Страница создана 20.06.2013
http://primanota.ru/buono/baketsu-no-mizu-chords.htm
Привет, Гость.
Предлагаем пройти революционный курс по гитаре.
Подарок от PrimaNota.Ru, забирай!