PrimaNota.ru - самый крупный в мире бесплатный архив песенных текстов, аккордов, табулатур и нот


Bunkface - High School Rocker - таба, видео

Регистрация Запомнить меня
Войти через:  Facebook Google Twitter Vk Yandex Mail.ru

Bunkface - High School Rocker - таба, видео

Печатать
Просмотров: 127
Artist: Bunkface
Song : High School Rocker
Tabbed by: Mohamad Hazwan

A really nice song.. really love it.. comment it at hunz_hagi15@yahoo.com.my
enjoy =)

intro
---------|
---------|
---9-----| 
---9-----| X2
---7-----| 
---------|

----------------------------------------------------------------------|
----------------------------------------------------------------------|
-9999-------9999-------9999----------------------8/999------8/999-----|
-9999-6/777-9999-6/777-7777-6/777-99999999--7777-8/999-7777-8/999-----|
-7777-6/777-7777-6/777-7777-6/777-99999999--7777-6/777-7777-8/999-----|
------4/555------4/555------6/777-77777777--5555-------5555-----------|
continue
---------------------|
---------------------|
-----------99999999--| 
-7777-9999-99999999--| 
-7777-9999-77777777--|
-5555-7777-----------|


verse 1
----------------------------|
----------------------------|
-9--9------------------9----| 
-9--9--7--7--9--9--7-9-9----| X4
-7--7--7--7--9--9--7-9-7----|
-------5--5--7--7--5-7------|
[verse 1]
it started off as a reason
a reason for the season
the plan of the mission was about to go
the other way of possition
a multi expedition
time after time it helds me up!


Pre-Chorus
--------------------|
--------------------|
-999----------------| 
-999-777-999-777----| X3
-777-777-999-777----|
-----555-777-555----|
[Pre-chorus]
now im in a mess
such a stress
i dont wanna know

where it goes
how it flows
never mind lets go

to a better place, off this chase
i will leave it all

then,
-----------------------|
-----------------------|
-44444444--------------| 
-22222222-99999999-----|
-22222222-99999999-----|
----------77777777-----|
so i better run away
coz all i wanna be is just a


Chorus
----------------------------------------------------------------------|
----------------------------------------------------------------------|
-9999-------9999-------9999----------------------8/999------8/999-----|
-9999-6/777-9999-6/777-7777-6/777-99999999--7777-8/999-7777-8/999-----|
-7777-6/777-7777-6/777-7777-6/777-99999999--7777-6/777-7777-8/999-----|
------4/555------4/555------6/777-77777777--5555-------5555-----------|
continue
---------------------|
---------------------|
-----------99999999--| 
-7777-9999-99999999--| 
-7777-9999-77777777--|
-5555-7777-----------|
[Chorus]
HIGHSCHOOL ROCKER!
A MIGHTY MIGHTY STOPPER!
NOTHING'S GONNA CHANGE MY MIND TO BLOW!

JUST ANOTHER BELIEVER!
A LOUSY LOUSY LOVER!
NOTHING'S GONNA CHANGE MY MIND TO BLOW!


verse 2
----------------------------|
----------------------------|
-9--9------------------9----| 
-9--9--7--7--9--9--7-9-9----| X4
-7--7--7--7--9--9--7-9-7----|
-------5--5--7--7--5-7------|
[Verse 2]
its off alone to be a disaster
and closer to the answer
the cross of my finger could be more than just a WAY! TO! SEE!!
what i will be
and strike away to be me
time after time it wakes me up!

Pre-Chorus
--------------------|
--------------------|
-999----------------| 
-999-777-999-777----| X3
-777-777-999-777----|
-----555-777-555----|
now im in a mess
such a stress
i dont wanna know

where it goes
how it flows
never mind lets go

to a better PLACE!
off this CHASE!
i will leave it all

then,
-----------------------|
-----------------------|
-44444444--------------| 
-22222222-99999999-----|
-22222222-99999999-----|
----------77777777-----|
so i better run away
coz all i wanna be is just a

Chorus 2X

solo

Chorus
Добавлено: 24.02.2012
Другие материалы по этой песне:
  • Аккорды и текст

Страница создана 24.02.2012
http://primanota.ru/bunkface/high-school-rocker-chords.htm
Привет, Гость.
Предлагаем пройти революционный курс по гитаре.
Подарок от PrimaNota.Ru, забирай!