PrimaNota.ru - самый крупный в мире бесплатный архив песенных текстов, аккордов, табулатур и нот


Bunkface - Ekstravaganza - таба, видео

Регистрация Запомнить меня
Войти через:  Facebook Google Twitter Vk Yandex Mail.ru

Bunkface - Ekstravaganza - таба, видео

Печатать
Просмотров: 121
Уроки эстрадного вокала в Санкт-Петербурге
strumming part ikut lagu,ni tab pertama,so kurang pengalamn :)
*=palm mute
\=slide in

(Intro)
Rythm
e-----------------------------------|
B-----------------------------------|
G--44-444---------777-777-----------|
D--44-444-755-555-777-777-777-777-7-|
A--22-222-755-555-555-555-777-777-7-|
E---------533-333---------555-555-5-|
(repeat 2x)

e--------------------------|           e---|
B--------------------------|           B---|
G--4-----------7-----------|(repeat 2x)G-4-|
D--4(x8)-5-----7(x8)-7-----|           D-4-| 
A--2-----5(x8)-5-----7(x8)-|           A-2-|
E--------3-----------5-----|           E---|

Lead
e---------------------------------------|
B---------------------------------------|
G------(11)-(12)(14)-----(9)-(11)-(12)--|
D--9-7--------------(x3)----------------|
A--9-7-(9)--(10)(12)-----(7)-(9)--(10)--|
E--7-5----------------------------------|
     *   
e----------------------------------------|
B----------------------------------------|
G---(11)-(12)(14)--------(9)-(7)-(6)-(4)-|
D----------------(x3)--------------------|
A---(9)--(10)(12)--------(7)-(5)-(4)-(2)-|
E----------------------------------------|

(Verse 1)
Rythm
e----------|
B----------|
G----------|
D--9-7-4-5-|
A--9-7-4-5-|
E--7-5-2-3-|
(repeat 4x)

Lead
e----------------------------------------------------|
B-X-X-7--6-7-6---(x2)---X-X-7--6-7-6--9-9\7-7\6-6\4--|
G--------------9-------------------------------------|
D----------------------------------------------------|
A----------------------------------------------------|
E----------------------------------------------------|

e----------------------------------------|
B-X-X-7--6-7-6------X-X-7--6-7-6---7~-9~-|
G--------------9-----------------9-------|
D----------------------------------------|
A----------------------------------------|
E----------------------------------------|

(Chorus)
Rythm
e------------|
B------------|
G----9---7---|
D--9-9-7-7-7-|
A--9-7-7-5-7-|
E--7---5---5-|

e------------|
B------------|
G----9---7-6-|
D--9-9-7-7-6-|
A--9-7-7-5-4-|
E--7---5-----|

Lead
e-----------------------|
B-----------------------|
G-4-6-7-9-11--12-14-7---|
D-4-6-7-9-11--12-14-7-7-|
A-2-4-5-7-9---10-12-5-7-|
E---------------------5-|

e-----------------------|
B-----------------------|
G-4-6-7-9-11--12-14-7-6-|
D-4-6-7-9-11--12-14-7-6-|
A-2-4-5-7-9---10-12-5-4-|
E-----------------------|

(Post Chorus:wooh....)

e---------------|    e----|
B---------------|    B----|
G-4-------------|(x2)G----|
D-4-4-5-5-7-5-7-|    D-9~-|
A-2-4-5-5-7-5-7-|    A-9~-|
E---2-3-3\5-3\5-|    E-7~-|
        * * * *

(Verse 2)
Rythm
e----------|
B----------|
G----------|
D--9-7-4-5-|
A--9-7-4-5-|
E--7-5-2-3-|
(repeat 4x,2x yg awl palm mute)

Lead
e--------------|
B--------------|
G-\12-11-9-11~-|
D--------------|
A--------------|
E--------------|

e----------------------------------------------------|
B-X-X-7--6-7-6---(x2)---X-X-7--6-7-6--9-9\7-7\6-6\4--|
G--------------9-------------------------------------|
D----------------------------------------------------|
A----------------------------------------------------|
E----------------------------------------------------|

e-----------------------------------------------|
B-X-X-7--6-7-6------X-X-7--6-7-6----7~-6~-7~-6~-|
G--------------9-----------------9~-------------|
D-----------------------------------------------|
A-----------------------------------------------|
E-----------------------------------------------|

e---------------------|
B---------------------|
G---------------------|(x2)
D---------------------|
A-----------7-7-------|
E-7-7-10-10-----10-10-|

Chorus ulang~~

Breakdown
e---------------------|
B---------------------|
G---------------------|
D-5-7-8-9-7-5-7-2-5-4-|
A-5-7-8-9-7-5-7-2-5-4-|
E-3-5-6-7-5-3-5-0-3-2-|

Solo
e-------------------------------------------------------------------------|
B-------------------------------------------------------------------------|
G-------------------------------------------------------------------------|
D-2-0-0-5-0-0-7-0-8-0-0-7-0-0-8-0-9-0-0-8-0-0-9-0--12-11-12~-12-11-12-14~-|
A-------------------------------------------------------------------------|
E-------------------------------------------------------------------------|

Ekstravaganza~
e----------------------------------------------------10-|
B----5---3------5---3-2-2\12-12-10-10\15-15-14-12-10-10-|
G--4---2---2--4---2-------------------------------------|
D-------------------------------------------------------|
A-------------------------------------------------------|
E-------------------------------------------------------|

Last Chorus repeat mcm chorus

Wooh...(yg last 3x)


Добавлено: 26.04.2012
Другие материалы по этой песне:

Страница создана 26.04.2012
http://primanota.ru/bunkface/ekstravaganza-chords.htm
Привет, Гость.
Предлагаем пройти революционный курс по гитаре.
Подарок от PrimaNota.Ru, забирай!