PrimaNota.ru - самый крупный в мире бесплатный архив песенных текстов, аккордов, табулатур и нот


Bumpin Uglies - White Boy Reggae - таба, видео

Регистрация Запомнить меня
Войти через:  Facebook Google Twitter Vk Yandex Mail.ru

Bumpin Uglies - White Boy Reggae - таба, видео

Печатать
Просмотров: 61
Уроки эстрадного вокала в Санкт-Петербурге
White Boy Reggae by The Bumpin' Uglies

*Tuning 1/2 Step Down*

Okay, I did my best. This song is really fun to play at parties. I couldn't find any tabs for the solo parts 
and Brandon was kind enough to send me a video of him playing it (thanks dude) so if that would help you out
just shoot me an e mail rog138@gmail.com and I'll send ya the vid. As for the strumming, tablature 
is kind of impractical in that regard, just watch the sugarshack sessions version and try to copy it, as it
would be waaay easier to just copy that than it would be to tab it out.

    Dm    A#    A     G    E#
e|--5-----6-----5-----3----X-----------------------------------------|
B|--6-----6-----5-----3----10----------------------------------------|
G|--7-----7-----6-----4----10----------------------------------------|
D|--7-----8-----7-----5----10----------------------------------------|
A|--5-----8-----7-----5----8-----------------------------------------|
E|--X-----6-----5-----3----X-----------------------------------------|


  Dm
Just another suburban stereotype
Love for the rhythms and the grooves despite
that I'm not from the islands and I'm the palest of white I
put the reggae grooves together with the words that I write

  A#
But I can't relate to a struggle that I've never seen

  G
I can't praise a god that I don't believe in

  A#
You might think Ive been lying when it comes from the seems

  A
But I'm not a fucking lion I'm a drunk with a dream

  Dm
And I'm a million miles away from everything,I thought I'd become
I've lost all my faith in the Lord above
And if I work real long and keep my convictions
I could still fill and satisfy everyone's predictions

  A#
So I drink to stay numb but I sing to stay alive

  G
There's no shot big enough to keep me satisfied

  A#
No rhymes smart enough for me to save my pride

  A
There's a fire burning in me that I cannot deny

  Dm
And I ain't preaching shit all I want is to be able
to make enough money with music to quit waiting tables
My blood runs cold as I try to comprehend
the words we deify that are creations of men

  A#
I'm just a hopeless romantic with the focus on hopeless

  G
writing love song after love song in a hope that I can cope with

  A#
The truth of my reality, It's hard for me to swallow

  A
The realest love I've known is between my liver and a bottle

  Dm
Decidedly rough I've confided enough
I am forever in possession of unrequited love
So I tether my confessions to the words I supply
I would rather die alone then settle for a lie

  A#
Because I'm a dying breed the extinction of a race

  G
Separating heads from shoulders just to spite the face

  A#
I've been coming around looking for the right sound
to escape from the mold that's been worn in the ground

  A
with the walls closing in on my coffin of sin
i would like to explain but before we begin

  E#                        A
If you're waiting for me to fall

  Dm
Take a seat and hold your breath it's almost last call

  A#
And I'm just one shot away from an early grave

  G
I've been running at a pace that I can't maintain

  A#
There's a demon living in me who's controlling my brain

  G
A poison running through me that I'll never contain

  Dm
So I siphon it off with a mic and a pen
But the growth is exponential it's drawing me in
Acting inconsequentially I'm lost to the sin

              A
You call it white boy reggae, I call it sanity's end.

Solo

e|------------------------------------8-10----8------------------------------|
B|-5h6p5-------------------{6}-6--8/10----9h10-6--(6/)-----------------------|
G|------h7p5--5h7p5-----5h7---7-7---------------7-(7/)-----------------------|
D|----------7------7-5h7-----------------------------------------------------|
A|---------------------------------------------------------------------------|
E|---------------------------------------------------------------------------|

e|------------------------------------5-----------5-----------5--------------|
B|-5h6p5-------------------{6}-6--8b(10)-(10)-8b(10)-(10)-8b(10)-(10)-8b(10)-|
G|------h7p5--5h7p5-----5h7---7-7--------------------------------------------|
D|----------7------7-5h7-----------------------------------------------------|
A|---------------------------------------------------------------------------|
E|---------------------------------------------------------------------------|

e|-(/10)-------11p10----------(/7)----8p7-----(/10)-------11p10--------------|
B|-(/11)---11-------12p11-----(/8)--8----9p8--(/11)---11-------12p11---------|
G|-(/10)-10--10---------------(/7)-7-7------7-(/10)-10--10-------------------|
D|-----------------------12/----------------------------------------12-10----|
A|---------------------------------------------------------------------------|
E|---------------------------------------------------------------------------|

e|----------------------------------------10----10-13-10-13-15b(17)-15-13----|
B|------------------------10--10-13-10-13----13--------------------------15/-|
G|---------10--10-12-10-12--12-----------------------------------------------|
D|-12-10-12--12--------------------------------------------------------------|
A|---------------------------------------------------------------------------|
E|---------------------------------------------------------------------------|

Sanity's end, Sanity's end ect...

That's about it folks. Again, if you're stuck on the solo, you think I missed something
or even if you think this tab just sucks in general feel free to message me and I'll hook ya up with the vid :)
Cheers!
Добавлено: 07.05.2016
Другие материалы по этой песне:
  • Аккорды и текст

Страница создана 07.05.2016
http://primanota.ru/bumpin-uglies/white-boy-reggae-chords.htm
Привет, Гость.
Предлагаем пройти революционный курс по гитаре.
Подарок от PrimaNota.Ru, забирай!