PrimaNota.ru - самый крупный в мире бесплатный архив песенных текстов, аккордов, табулатур и нот


Bummer - The South - бас-таба, видео

Регистрация Запомнить меня
Войти через:  Facebook Google Twitter Vk Yandex Mail.ru

Bummer - The South - бас-таба, видео

Печатать
Просмотров: 77
Уроки эстрадного вокала в Санкт-Петербурге
-------------------------------------------------------------------------------
                             The South - Bummers
-------------------------------------------------------------------------------
Tabbed by: Waquiqui
E-mail: dylantmcnulty@gmail.com

Tuning: Standard


Intro:
G|---------------------------------------------------------------------------|
D|---------------------------------------------------------------------------|
A|---7-7-----4-4444444-------------------------------------------------------|
E|-------4-4-----------------------------------------------------------------|x16




Verse 1: they're elevens not ones
G|---------------------------------------------------------------------------|
D|--1414141414141414-12121212-11111111---------------------------------------|
A|---------------------------------------------------------------------------|
E|---------------------------------------------------------------------------|x10




Verse 2:                               [4secs}          [4secs]
G|---------------------------------------------------------------------------|
D|--------------------------------12h14-----------12h14----------------------|
A|-----1414141414xx-1212121212xx---------------------------------------------|
E|---------------------------------------------------------------------------|x5
                                                   


G|---------------------------------------12--1412----------------------------|
D|--------------------------------12h14----14----14--12h14-------------------|
A|-----1414141414xx-1212121212xx---------------------------------------------|
E|---------------------------------------------------------------------------|x1



Outro:
G|---------------------------------------------------------------------------|
D|---------------------------------------------------------------------------|
A|--14---12------------------------------------------------------------------|
E|---------------------------------------------------------------------------|x1




Enjoy! 
(let me know if you wan a guitar tab, just email me if so!)
| /  slide up
| \  slide down
| h  hammer-on
| p  pull-off
| ~  vibrato
| +  harmonic
| x  Mute note
===============================================================================
Добавлено: 30.12.2015
Другие материалы по этой песне:
  • Аккорды и текст

Страница создана 30.12.2015
http://primanota.ru/bummer/south-chords.htm
Привет, Гость.
Предлагаем пройти революционный курс по гитаре.
Подарок от PrimaNota.Ru, забирай!