PrimaNota.ru - самый крупный в мире бесплатный архив песенных текстов, аккордов, табулатур и нот


Bumblefoot - Malignant Carbuncle - таба, видео

Регистрация Запомнить меня
Войти через:  Facebook Google Twitter Vk Yandex Mail.ru

Bumblefoot - Malignant Carbuncle - таба, видео

Печатать
Просмотров: 68
                              Malignant Carbuncle  
                         (original version+ second half)
                             Adventures of Bumblefoot                             


                                                                      Bumblefoot
Guitar I
Good Luck



      T   T    NH           T   T    NH           T   T    NH        
      E   E    E  E  E      E   E    E  E  E      E   E    E  E  E   
E||--17--19--<>5--------|--17--19--<>5--------|---------------------|
B||---------------------|---------------------|---------------------|
G||---------------------|---------------------|--12--14--<>5--------|
D||---------------x--x--|---------------x--x--|---------------x--x--|
A||---------------------|---------------------|---------------------|
E||---------------------|---------------------|---------------------|


   T   T    NH           T   T    NH           T   T    NH        
   E   E    E  E  E      E   E    E  E  E      E   E    E  E  E   
---------------------|---------------------|---------------------|
--15--17--<>5--------|--15--17--<>5--------|--15--17--<>5--------|
---------------------|---------------------|---------------------|
---------------x--x--|---------------x--x--|---------------x--x--|
---------------------|---------------------|---------------------|
---------------------|---------------------|---------------------|


   T   T    NH           T   T    NH           T   T    NH        
   E   E    E  E  E      E   E    E  E  E      E   E    E  E  E   
--17--19--<>5--------|--17--19--<>5--------|---------------------|
---------------------|---------------------|---------------------|
---------------------|---------------------|--12--14--<>5--------|
---------------x--x--|---------------x--x--|---------------x--x--|
---------------------|---------------------|---------------------|
---------------------|---------------------|---------------------|


   T   T    NH           T   T    NH           T   T    NH        
   E   E    E  E  E      E   E    E  E  E      E   E    E  E  E   
---------------------|---------------------|---------------------|
--15--17--<>5--------|--15--17--<>5--------|--15--17--<>5--------|
---------------------|---------------------|---------------------|
---------------x--x--|---------------x--x--|---------------x--x--|
---------------------|---------------------|---------------------|
---------------------|---------------------|---------------------|


   T   T    NH           T   T    NH           T   T    NH        
   E   E    E  E  E      E   E    E  E  E      E   E    E  E  E   
---------------------|---------------------|--15--20--<>5--------|
------17--<>5--------|---------------------|---------------------|
---------------------|------17--<>5--------|---------------------|
---------------x--x--|--14-----------x--x--|---------------x--x--|
--15-----------------|---------------------|---------------------|
---------------------|---------------------|---------------------|


   T   T    NH           T   T    NH        
   E   E    E  E  E      E   E    E  E  E   
--15--20--<>5--------|--15--20--<>5--------|
---------------------|---------------------|
---------------------|---------------------|
---------------x--x--|---------------x--x--|
---------------------|---------------------|
---------------------|---------------------|


   T    NH     T    NH     T    NH     T    NH     T    NH     
   E    E  E   E    E  E   E    E  E   E    E  E   E    E  E   
--------------------------------------------------------------|
--------------------------15--<>5-----------------------------|
--------------16--<>5-----------------16--<>5-----------------|
--17--<>5--x-----------x-----------x-----------x--17--<>5--x--|
--------------------------------------------------------------|
--------------------------------------------------------------|


   T    NH     T    NH       T  T    NH     T    NH     T    NH  
   E    E  E   E    E  E  S  S  E    E  E   E    E  E   E    E   
----------------------------------------------------------------|
----------------------------17-15--<>7--------------------------|
--------------14--<>7----------------------14--<>7--------------|
--16--<>7--x-----------x--x-------------x-----------x--16--<>7--|
----------------------------------------------------------------|
----------------------------------------------------------------|


   T    NH     T    NH       T  T    NH     T    NH     T    NH  
   E    E  E   E    E  E  S  S  E    E  E   E    E  E   E    E   
----------------------------------------------------------------|
----------------------------17-15--<>7--------------------------|
--------------14--<>7----------------------14--<>7--------------|
--16--<>7--x-----------x--x-------------x-----------x--16--<>7--|
----------------------------------------------------------------|
----------------------------------------------------------------|


   T    NH     T    NH       T  T    NH     T    NH     T    NH    
   E    E  E   E    E  E  S  S  E    E  E   E    E  E   E    E     
-----------------------------------------------------------------||
----------------------------17-15--<>7---------------------------||
--------------14--<>7----------------------14--<>7--------------*||
--16--<>7--x-----------x--x-------------x-----------x--16--<>7--*||
-----------------------------------------------------------------||
-----------------------------------------------------------------||


            NH                NH                NH            
   E   E    E  E  S  E   E    E  E  S  E   E    E  E  E   E   
-------------------------------------------------------------|
--------------------------------------22--20--<>5--x--x------|
--------------------21--19--<>5--x--x------------------------|
--20--21--<>5--x--x--------------------------------------20--|
-------------------------------------------------------------|
-------------------------------------------------------------|


        NH                NH                NH                
   E    E  E  S  E   E    E  E  S  E   E    E  E  E   E   E   
-------------------------------------------------------------|
----------------------------------22--20--<>5--x--x----------|
----------------21--19--<>5--x--x----------------------------|
--21--<>5--x--x--------------------------------------20--21--|
-------------------------------------------------------------|
-------------------------------------------------------------|


    NH                 NH                 NH             NH  
    E  E  E   E   E    E  E  E   E   E    E  E  E   E    E   
------------------------------------------------------------|
--------------------------------22--20--<>5--x--x-----------|
-------------21--19--<>5--x--x------------------------------|
--<>5--x--x-------------------------------------------------|
------------------------------------------------------------|
---------------------------------------------------12--<>7--|


              NH          NH             NH          NH     
  E  E   E    E  E   E    E  E  E   E    E  E   E    E  E   
-----------------------------------------------------------|
-----------------------------------------------------------|
-----------------------------------------------18--<>5-----|
--x--x--18--<>5--x-----------x--x-----------x-----------x--|
-----------------------------------12--<>7-----------------|
--------------------19--<>5--------------------------------|


           NH          NH       NH             NH            
  E   E    E  E   E    E   E    E  E  E   E    E  E  E   E   
------------------------------------------------------------|
-----------------------------------------17--<>7------------|
------------------------------------------------------------|
--x-----------x--------------------x--x-----------x--x------|
-----19--<>5--------------21--<>5-----------------------22--|
-----------------22--<>5------------------------------------|


    NH       NH             NH       NH             NH        
    E   E    E  E  E   E    E   E    E  E  E   E    E  E  E   
-------------------------------------------------------------|
----------------------22--<>5--------------------------------|
-------------------------------22--<>5--------17--<>5--------|
-------21--<>5--x--x--------------------x--x-----------x--x--|
--<>5--------------------------------------------------------|
-------------------------------------------------------------|


        NH             NH             NH             NH     
   E    E  E  E   E    E  E  E   E    E  E  E   E    E  E   
--18--<>5-----------------------18--<>5--------18--<>5-----|
-----------------------------------------------------------|
-----------------17--<>5-----------------------------------|
-----------x--x-----------x--x-----------x--x-----------x--|
-----------------------------------------------------------|
-----------------------------------------------------------|


        NH             NH             NH              NH     
   E    E  E  E   E    E  E  E   E    E  E   E   E    E  E   
------------------------------------------------------------|
--------------------------------22--<>4---------------------|
--17--<>5---------------------------------------------------|
-----------x--x--21--<>4--x--x-----------x---x--21--<>4--x--|
------------------------------------------------------------|
------------------------------------------------------------|


           NH             NH                          T   T    NH        
  E   E    E  E  E   E    E  E  E   H.                E   E    E  E  E   
--------------------------------------------------|--17--19--<>5--------|
-----22--<>4--------19--<>5-----------------------|---------------------|
--------------------------------------------------|---------------------|
--x-----------x--x-----------x--x--21~------------|---------------x--x--|
--------------------------------------------------|---------------------|
--------------------------------------------------|---------------------|


   T   T    NH           T   T    NH           T   T    NH        
   E   E    E  E  E      E   E    E  E  E      E   E    E  E  E   
--17--19--<>5--------|---------------------|---------------------|
---------------------|---------------------|--15--17--<>5--------|
---------------------|--12--14--<>5--------|---------------------|
---------------x--x--|---------------x--x--|---------------x--x--|
---------------------|---------------------|---------------------|
---------------------|---------------------|---------------------|


   T   T    NH           T   T    NH           T   T    NH        
   E   E    E  E  E      E   E    E  E  E      E   E    E  E  E   
---------------------|---------------------|--17--19--<>5--------|
--15--17--<>5--------|--15--17--<>5--------|---------------------|
---------------------|---------------------|---------------------|
---------------x--x--|---------------x--x--|---------------x--x--|
---------------------|---------------------|---------------------|
---------------------|---------------------|---------------------|


   T   T    NH           T   T    NH           T   T    NH        
   E   E    E  E  E      E   E    E  E  E      E   E    E  E  E   
--17--19--<>5--------|---------------------|---------------------|
---------------------|---------------------|--15--17--<>5--------|
---------------------|--12--14--<>5--------|---------------------|
---------------x--x--|---------------x--x--|---------------x--x--|
---------------------|---------------------|---------------------|
---------------------|---------------------|---------------------|


   T   T    NH           T   T    NH           T   T    NH        
   E   E    E  E  E      E   E    E  E  E      E   E    E  E  E   
---------------------|---------------------|---------------------|
--15--17--<>5--------|--15--17--<>5--------|------17--<>5--------|
---------------------|---------------------|---------------------|
---------------x--x--|---------------x--x--|---------------x--x--|
---------------------|---------------------|--15-----------------|
---------------------|---------------------|---------------------|


   T   T    NH           T   T    NH           T   T    NH        
   E   E    E  E  E      E   E    E  E  E      E   E    E  E  E   
---------------------|--15--20--<>5--------|--15--20--<>5--------|
---------------------|---------------------|---------------------|
------17--<>5--------|---------------------|---------------------|
--14-----------x--x--|---------------x--x--|---------------x--x--|
---------------------|---------------------|---------------------|
---------------------|---------------------|---------------------|


   T   T    NH        
   E   E    E  E  E   
--15--20--<>5--------|
---------------------|
---------------------|
---------------x--x--|
---------------------|
---------------------|


   T    NH     T    NH     T    NH     T    NH     T    NH     
   E    E  E   E    E  E   E    E  E   E    E  E   E    E  E   
--------------------------------------------------------------|
--------------------------15--<>5-----------------------------|
--------------16--<>5-----------------16--<>5-----------------|
--17--<>5--x-----------x-----------x-----------x--17--<>5--x--|
--------------------------------------------------------------|
--------------------------------------------------------------|


   T    NH     T    NH       T  T    NH     T    NH     T    NH  
   E    E  E   E    E  E  S  S  E    E  E   E    E  E   E    E   
----------------------------------------------------------------|
----------------------------17-15--<>7--------------------------|
--------------14--<>7----------------------14--<>7--------------|
--16--<>7--x-----------x--x-------------x-----------x--16--<>7--|
----------------------------------------------------------------|
----------------------------------------------------------------|


           NH                 NH          NH          NH     
  E   E    E  E  E   E   E    E  E   E    E  E   E    E  E   
------------------------------------------------------------|
--------------------17--15--<>7-----------------------------|
-----14--<>7------------------------14--<>7-----------------|
--x-----------x--x---------------x-----------x--16--<>7--x--|
------------------------------------------------------------|
------------------------------------------------------------|


        NH                 NH          NH          NH         
   E    E  E  E   E   E    E  E   E    E  E   E    E  E   E   
-------------------------------------------------------------|
-----------------17--15--<>7---------------------------------|
--14--<>7------------------------14--<>7-----------------14--|
-----------x--x---------------x-----------x--16--<>7--x------|
-------------------------------------------------------------|
-------------------------------------------------------------|


    NH                 NH             NH             NH     
    E  E  E   E   E    E  E  E   E    E  E  E   E    E  E   
-----------------------------------------------------------|
-------------17--15--<>7-----------------------------------|
--<>7------------------------------------------------------|
-------x--x---------------x--x-----------x--x--14--<>7--x--|
--------------------------------16--<>7--------------------|
-----------------------------------------------------------|


      T    NH        T    NH        T    NH        T    NH  
  E   E    E  E  E   E    E  E  E   E    E  E  E   E    E   
-----------------------------------------------------------|
-----------------------------------------------------------|
-----------------------------------------------------------|
--x-----------x--x--14--<>7--x--x-----------x--x-----------|
-----15--<>7-----------------------14--<>7-----------------|
--------------------------------------------------12--<>7--|


         T    NH        T              NH            
  E  E   E    E  E  E   H         E    E  E  E   E   
-----------------------24---------------------------|
--------17--<>5-------------------------------------|
----------------------------------------------------|
--x--x-----------x--x---------------------x--x--14--|
---------------------------------16--<>7------------|
----------------------------------------------------|


    NH        T    NH        T    NH        T    NH        
    E  E  E   E    E  E  E   E    E  E  E   E    E  E  E   
----------------------------------------------------------|
----------------------------------------------------------|
----------------------------------------------------------|
--<>7--x--x-----------x--x--14--<>7--x--x-----------x--x--|
-------------15--<>7-----------------------14--<>7--------|
----------------------------------------------------------|


   T    NH                     T              NH     
   E    E  E  E   E  E  E  E   H         E    E  E   
------------------------------24--------------------|
-----------------17--5------------------------------|
----------------------------------------------------|
-----------x--x---------x--x---------------------x--|
----------------------------------------16--<>7-----|
--12--<>7-------------------------------------------|


           NH        T    NH        T    NH             NH  
  E   E    E  E  E   E    E  E  E   E    E  E  E   E    E   
-----------------------------------------------------------|
-----------------------------------------------------------|
-----------------------------------------------------------|
--x--14--<>7--x--x-----------x--x--14--<>7--x--x-----------|
--------------------15--<>7-----------------------14--<>7--|
-----------------------------------------------------------|


              NH       NH             NH       NH            
  E  E   E    E   E    E  E  E   E    E   E    E  E  E   E   
--------------------------------21--<>7---------------------|
-----------------------------------------22--<>7------------|
--------20--<>7---------------------------------------------|
--x--x-----------21--<>7--x--x--------------------x--x--14--|
------------------------------------------------------------|
------------------------------------------------------------|


    NH             NH       NH             NH       NH        
    E  E  E   E    E   E    E  E  E   E    E   E    E  E  E   
-------------------------------------21--<>7-----------------|
----------------------------------------------22--<>7--------|
-------------20--<>7-----------------------------------------|
--<>7--x--x-----------21--<>7--x--x--------------------x--x--|
-------------------------------------------------------------|
-------------------------------------------------------------|


        NH             NH       NH             NH            
   E    E  E  E   E    E   E    E  E  E   E    E  E  E   E   
--------------------------22--<>4---------------------------|
-----------------22--<>4------------------------------------|
-----------------------------------------20--<>4------------|
--21--<>4--x--x--------------------x--x-----------x--x--21--|
------------------------------------------------------------|
------------------------------------------------------------|


    NH             NH             NH        ^             W                   
    E  E  E   E    E  E  E   E    E  E  E   E   Q.        Q    Q    H         
----------------------------22--<>4--------29b--L------|--L----L-------------|
-------------22--<>4-----------------------------------|---------------------|
-------------------------------------------------------|---------------------|
--<>4--x--x-----------x--x-----------x--x--------------|---------------------|
-------------------------------------------------------|---------------------|
-------------------------------------------------------|---------------------|


  H         
-----------|
-----------|
-----------|
-----------|
-----------|
-----------|


      T        T        T        T  T     T        T        T        T     
   |--3--|  |--3--|  |--3--|  |--3--|  |--3--|  |--3--|  |--3--|  |--3--|  
   S  S  S  S  S  S  S  S  S  S  S  S  S  S  S  S  S  S  S  S  S  S  S  S  
--------------------------------------------------------------------------|
-----21-------21-------21-------21-------21-------21----17-21-------21----|
--------16-15----15-16----16-15----21-------16-15----15-------16-------16-|
--14----------------------------------14-------------------------14-------|
--------------------------------------------------------------------------|
--------------------------------------------------------------------------|


      T        T        T  T     T        T        T        T  T     T  T  
   |--3--|  |--3--|  |--3--|  |--3--|  |--3--|  |--3--|  |--3--|  |--3--|  
   S  S  S  S  S  S  S  S  S  S  S  S  S  S  S  S  S  S  S  S  S  S  S  S  
--------------------------------------------------------------------------|
-----21-------21-------21-------21-------21-------21----------------------|
--15----15-16----16-15----21-------16-15----15-16----16----17-------17----|
-----------------------------14-------------------------------16-13----16-|
--------------------------------------------------------11----------------|
--------------------------------------------------------------------------|


      T  T     T  T     T  T     T  T     T  T     T     T  T        T     
   |--3--|  |--3--|  |--3--|  |--3--|  |--3--|  |--3--|  |--3--|  |--3--|  
   S  S  S  S  S  S  S  S  S  S  S  S  S  S  S  S  S  S  S  S  S  S  S  S  
--------------------------------------------------------------------------|
--------------------------------------------------19-------19-------19----|
-----17-------18-------18-------18-------18-------------21----------------|
--10----16-------19-14----19-11----19-14----19-------16-------16-------16-|
-----------12----------------------------------14----------------14-------|
--------------------------------------------------------------------------|


   T  T        T     T  T        T     T  T        T  T              T  T  
   |--3--|  |--3--|  |--3--|  |--3--|  |--3--|  |--3--|  |--3--|  |--3--|  
   S  S  S  S  S  S  S  S  S  S  S  S  S  S  S  S  S  S  S  S  S  S  S  S  
--------------------------------------------------------------------------|
-----19-------19-------19-------19-------19-------17-------17-------17----|
--20----------------21----------------20----------------16----16----------|
--------16-------16-------16-------16-------16-14----17----------16----17-|
-----------16----------------14-------------------------------------------|
--------------------------------------------------------------------------|


      T  T     T  T              T  T     T  T     T  T              T  T  
   |--3--|  |--3--|  |--3--|  |--3--|  |--3--|  |--3--|  |--3--|  |--3--|  
   S  S  S  S  S  S  S  S  S  S  S  S  S  S  S  S  S  S  S  S  S  S  S  S  
--------------------------------------------------------------------------|
-----17-------17-------17-------17-------17-------17-------17-------17----|
--16----------------16----16----------16----------------16----16----------|
--------17-14----17----------16----17-------17-14----17----------16----17-|
--------------------------------------------------------------------------|
--------------------------------------------------------------------------|


      T  T                                                               
   |--3--|  |--3--|  |-3-|  |--3--|  |--3--|  |--3--|  |--3--|  |--3--|  
   S  S  S  S  S  S  E   S  S  S  S  S  S  S  S  S  S  S  S  S  S  S  S  
------------------------------------------------------------------------|
-----17-----------------------------------------------------------------|
--16----------16----16-----14-16-14----16-------16----14-16-14----16----|
--------17-12----12-----12----------12----12-14----14----------12----12-|
------------------------------------------------------------------------|
------------------------------------------------------------------------|


                                                  T        T        T  
   |-3-|  |--3--|  |--3--|  |--3--|  |------3-----|  |--3--|  |--3--|  
   E   S  S  S  S  S  S  S  S  S  S  S  S  E   S  S  S  S  S  S  S  S  
----------------------------------------------------------------------|
-------------------------------------------------17-------17-------17-|
--16-----14-16-14----16-------16----14-16-14--------12-11----12-------|
------12----------12----12-14----14-----------10----------------10----|
----------------------------------------------------------------------|
----------------------------------------------------------------------|


         T        T        T       T        T       T        T       T  
   |--3--|  |--3--|  |--3--|  |--3-|  |--3--|  |--3-|  |--3--|  |--3-|  
   S  S  S  S  S  S  S  S  S  S S  S  S  S  S  S S  S  S  S  S  S S  S  
-----------------------------------------------------------------------|
--------17-------17-------17------17-------17------17-------17------17-|
--12-11----12-------12-11----12------12-11----12------12-11----12------|
--------------10----------------8----------------8----------------8----|
-----------------------------------------------------------------------|
-----------------------------------------------------------------------|


         T       T        T       T        T       T        T       T  
   |--3--|  |--3-|  |--3--|  |--3-|  |--3--|  |--3-|  |--3--|  |--3-|  
   S  S  S  S S  S  S  S  S  S S  S  S  S  S  S S  S  S  S  S  S S  S  
----------------------------------------------------------------------|
--------17------17-------17------17-------17------17-------17------16-|
--12-11----12------12-11----12------12-11----12------12-11----12------|
--------------9----------------9----------------9----------------9----|
----------------------------------------------------------------------|
----------------------------------------------------------------------|


   T     T       T  T     T       T  T     T       T  T     T       T  
   |--3--|  |--3-|  |--3--|  |--3-|  |--3--|  |--3-|  |--3--|  |--3-|  
   S  S  S  S S  S  S  S  S  S S  S  S  S  S  S S  S  S  S  S  S S  S  
----------------------------------------------------------------------|
--------16------16-------16------16-------16------16-------16------16-|
--16-11----11------16-11----11------16-11----11------16-11----11-8----|
--------------9----------------9----------------8---------------------|
----------------------------------------------------------------------|
----------------------------------------------------------------------|


   T     T       T  T     T       T  T  T  T       T  T     T  T    T  
   |--3--|  |--3-|  |--3--|  |--3-|  |--3--|  |--3-|  |--3--|  |--3-|  
   S  S  S  S S  S  S  S  S  S S  S  S  S  S  S S  S  S  S  S  S S  S  
----------------------------------------------------------------------|
--------16------16-------16------16-------16------15-------15------15-|
--16-15----11------16-11----11-8----16-15----11------15-10----15-7----|
--------------8---------------------------------8---------------------|
----------------------------------------------------------------------|
----------------------------------------------------------------------|


   T     T  T    T  T     T  T    T  T     T  T    T  T     T  T    T  
   |--3--|  |--3-|  |--3--|  |--3-|  |--3--|  |--3-|  |--3--|  |--3-|  
   S  S  S  S S  S  S  S  S  S S  S  S  S  S  S S  S  S  S  S  S S  S  
----------------------------------------------------------------------|
--------15------15-------15------15-------15------15-------15------15-|
--15-10----15------15-10----15-7----15-10----15------15-10----15-7----|
--------------8---------------------------------7---------------------|
----------------------------------------------------------------------|
----------------------------------------------------------------------|


   T     T  T    T  T     T  T    T  T     T  T    T  T    T  T    T  
   |--3--|  |--3-|  |--3--|  |--3-|  |--3--|  |--3-|  |--3-|  |--3-|  
   S  S  S  S S  S  S  S  S  S S  S  S  S  S  S S  S  S S  S  S S  S  
---------------------------------------------------------------------|
--------15------15-------15------15-------15------14------14------14-|
--15-10----15------15-10----15-7----15-10----15------14-9----14-6----|
--------------7---------------------------------7--------------------|
---------------------------------------------------------------------|
---------------------------------------------------------------------|


   T    T  T    T  T    T  T    T  T    T  T           
   |--3-|  |--3-|  |--3-|  |--3-|  |--3-|  3 3         
   S S  S  S S  S  S S  S  S S  S  S S  S  S H         
------------------------------------------------------|
-------14------14------14------14------14-------------|
--14-9----14------14-9----14-6----14-9----14----------|
-------------7-------------------------------9--------|
---------------------------------------------7--------|
---------------------------------------------7--------|


   E  G# B                                             
   T  T  T  T  T  T  T  T  T       T  T    T           
   |--3--|  |--3--|  |--3--|  |---3---|                
   S  S  S  S  S  S  S  S  S  S    S  S    Q     Q     
--24-28----25-29----26-30----27---------<>22b---------|
--------24-------25-------26----<>24-27---------------|
-------------------------------------------------9----|
-------------------------------------------------9----|
-------------------------------------------------7----|
-------------------------------------------------7----|


   T  T  T  T  T  T  T    T  T  T    T  T    T            
   |--3--|  |--3--|  |---3---|  |---3---|                 
   S  S  S  S  S  S  S    S  S  S    S  S    Q      Q     
--25-29----26-30----27---------28---------<>24b----------|
--------25-------26----<>24-27----<>25-28----------------|
---------------------------------------------------11----|
----------------------------------------------------9----|
----------------------------------------------------7----|
----------------------------------------------------7----|


   T  T  T  T  T  T  T  T  T  T  T  T  T   T  T  T  T  T  T  T  
   |--3--|  |--3--|  |--3--|  |--3--|                           
   S  S  S  S  S  S  S  S  S  S  S  S  S   S  S  S  S  S  S  S  
--22-27----23-28----24-29----25-30----29b----28----27----26----|
--------24-------25-------26-------27-----28----28----28----28-|
---------------------------------------------------------------|
---------------------------------------------------------------|
---------------------------------------------------------------|
---------------------------------------------------------------|


   T   T  T  T  T  T  T  T  T   T  T  T  T  T  T  T  
   S   S  S  S  S  S  S  S  S   S  S  S  S  S  S  S  
--28b----27----26----25----27b----26----25----24----|
------28----28----28----28-----28----28----28----28-|
----------------------------------------------------|
----------------------------------------------------|
----------------------------------------------------|
----------------------------------------------------|


   T                                                          
   E   E  S E  S E  E  E  S S    S S S  Q      Q    E  S S S  
--29b-------------------------|------------------------------|
------------------------------|--------19b~----L-------------|
------------------------------|------------------------------|
-------8----6----5-----2--L-L-|---------------------2--L-----|
-------8----6----5-----2--L-L-|---------------------2--L-----|
-------6----4----3-----0--L-0-|--0-0-0--------------0--L-0-0-|


  S S  E    E   E  S E  E   E   S     E    Q    E  E  E  E   E   
-----------17--19--L-2--L---------|--29b~--L----L--2--L---------|
------19b------------3--L---------|----------------3--L---------|
---------------------2--L------14-|----------------2--L---------|
---------------------0--L--12-----|----------------0--L--0--12--|
----------------------------------|-----------------------------|
--0-0-----------------------------|-----------------------------|


    E   S  S  S  S  S  S  E  Q      E   
--\19--17-16---------------------------|
-------------17----17------------------|
----------------16----------------\13--|
----------------------11~-L------------|
---------------------------------------|
---------------------------------------|


                               T           
                         |--3--|           
   S  S  E   E  E   S S  S  S  S T  E   S. 
------------12----------------19-L--------|
--12-14-16-----------------14------12--16-|
------------------------11----------------|
----------------9~--L-L-------------------|
------------------------------------------|
------------------------------------------|


   T                  T                T  T                                     
                |--3--|  3             3  3                            |--3--|  
   E  Q     E   S  S  S  S S  S  S  S  S  S     Q     E  E   Q     E   S  S  S  
---------------------16------17----------19-|----------------------------------|
--17--------------------14-L----16--L-19----|--17~----L--L---------------------|
--------------------------------------------|----------------------------------|
------7~----L-----14------------------------|-------------------------------10-|
---------------12---------------------------|-------------------------\9-12----|
--------------------------------------------|---------------\8~----L-----------|


                    T                                  ^               
  |--3--|  |--3--|                                                     
  S  S  S  S  S  S  S  Q       E   Q     S       Q     Q    H          
-------------12-14-19-19br----16--16b----L-|--<>24~------------------||
-------10-13-------------------------------|-------------------------||
--9-11-------------------------------------|-------------------------||
-------------------------------------------|-----------2-------------||
-------------------------------------------|-----------2-------------||
-------------------------------------------|-----------0-------------||




Duration Legend
---------------
W - whole
H - half
Q - quarter
E - 8th
S - 16th
T - 32nd
X - 64th
. - note dotted
|-n-|  - n-tuplets


Tablature Legend
----------------
L - tied note
x - dead note
g - grace note
(n) - ghost note
> - accentuded note
NH - natural harmonic
AH - artificial harmonic
TH - tapped harmonic
SH - semi harmonic
PH - pitch harmonic
h - hammer on
p - pull off
b - bend
br - bendRelease
pb - preBend
pbr - preBendRelease
brb - bendReleaseBend
\n/ - tremolo bar dip
\n - tremolo bar dive
-/n - tremolo bar Release up
/n\ - tremolo bar inverted dip
/n - tremolo bar return
-\n - tremolo bar Release down
S - shift slide
s - legato slide
/ -  slide into from below or out of upwards
\ -  slide into from above or out of downwards
~ - vibrato
W - wide vibrato
tr - trill
TP - tremolo picking
T - tapping
S - slap
P - pop
< - fade in
^ - brush up
v - brush down
Добавлено: 13.10.2013
Другие материалы по этой песне:
  • Аккорды и текст

Страница создана 13.10.2013
http://primanota.ru/bumblefoot/malignant-carbuncle-chords.htm
Привет, Гость.
Предлагаем пройти революционный курс по гитаре.
Подарок от PrimaNota.Ru, забирай!