PrimaNota.ru - самый крупный в мире бесплатный архив песенных текстов, аккордов, табулатур и нот


Bully - I Remember - бас-таба, видео

Регистрация Запомнить меня
Войти через:  Facebook Google Twitter Vk Yandex Mail.ru

Bully - I Remember - бас-таба, видео

Печатать
Просмотров: 60
-------------------------------------------------------------------------------
                             I REMEMBER - Bully
-------------------------------------------------------------------------------
Tabbed by: Lauren Marquez
E-mail: lauren.marquez4@gmail.com

Tuning: Standard

INTRO
  1 + 2 + 3 + 4 + 
G|---------------|---------------|---------------|---------------|---------------|
D|---------------|---------------|---------------|---------------|---------------|
A|--(drums)-----3---3-3-3-3-3-3-3-3-3-3---------3---3-3-3-3-3-3-3-------5---5---3|
E|---------------|---------------|------3---3----|----------------3-3-3----------|

G|---------------|---------------|---------------|---------------|
D|---------------|---------------|----------------5-5-5----------|
A|--3-3-3-3-3-3-3-3-3-3---------3---3-3-3-3-3-3-3-------5---5---3|
E|---------------|------3---3----|---------------|---------------|


VERSE
G|---------------|---------------|---------------|---------------|
D|---------------|---------------|---------------|---------------|
A|--3-3-3-3-3-3-3-3-3-3---------3---3-3-3-3-3-3-3-------5---5---3|
E|---------------|------3---3----|----------------3-3-3----------|

G|---------------|---------------|---------------|---------------|
D|---------------|---------------|----------------5-5-5----------|
A|--3-3-3-3-3-3-3-3-3-3---------3---3-3-3-3-3-3-3-------5---5---3|
E|---------------|------3---3----|---------------|---------------|

G|---------------|---------------|---------------|---------------|
D|---------------|---------------|---------------|---------------|
A|--3-3-3-3-3-3-3-3-3-3---------3---3-3-3-3-3-3-3-------5---5---3|
E|---------------|------3---3----|----------------3-3-3----------|

G|---------------|---------------|---------------|---------------|
D|---------------|---------------|---------------|--------------5|
A|--3-3-3-3-3-3-3-3-3-3---------3---3-3-3-3-3-3-3-------5---5-5--|
E|---------------|------3---3----|----------------3-3-3----------|


CHORUS
G|---------------|---------------|---------------|---------------|
D|--5-5-5-5-5-5-5---------------5|--5-5-5-5-5-5-5---------------5|
A|---------------|2-2-2-3---5----|----------------2-2-2-3---5----|
E|---------------|---------------|---------------|---------------|

G|---------------|---------------|---------------|---------------|
D|--5-5-5-5-5-5-5---------------5|--5-5-5-5-5-5-5----------------|
A|---------------|2-2-2-3---5----|----------------2-2-2-3-------3|
E|---------------|---------------|---------------|---------------|

Intro again
Verse again
Chorus again
Then bridge/outro is the same as chorus until the end of the song, end on G

===============================================================================
Добавлено: 20.12.2015
Другие материалы по этой песне:
  • Аккорды и текст

Страница создана 20.12.2015
http://primanota.ru/bully/i-remember-chords.htm
Привет, Гость.
Предлагаем пройти революционный курс по гитаре.
Подарок от PrimaNota.Ru, забирай!