PrimaNota.ru - самый крупный в мире бесплатный архив песенных текстов, аккордов, табулатур и нот


Bully - I Remember - аккорды и текст, таба, бас-таба, видео

Регистрация Запомнить меня
Войти через:  Facebook Google Twitter Vk Yandex Mail.ru

Bully - I Remember - аккорды и текст, таба, бас-таба, видео

Печатать
Просмотров: 147
Уроки эстрадного вокала в Санкт-Петербурге
Авторы: Alicia Bognanno

I Remember
Bully
*Tabs for rhythm guitar line*

[Intro]

     C5  G         C5  G   D
e|-------3-------------3---3-----|
B|-------3-------------3---2-----|
G|---4---4---------4---4---3-----|
D|---5---5---------5---5---------| x2
A|---3---5---------3---5---------|
E|-------3-------------3---------|


[Verse]
(Repeat intro chords)

 C5              G
I remember
 C5              G  D
I remember my old habits
 C5                         G
I remember getting too fucked up
 C5                          G  D
And I remember throwing up in your car
 C5              G
I remember
 C5                        G  D
I remember showing up at your house
 C5                         G
And I remember hurting you so bad
 C5                            G  D
And I remember the way your sheets smelt


[Chorus]
    G/D(?)   Am    Gm
e|---15------5-----3-----|
B|---15------5-----3-----|
G|---16------7-----5-----|
D|---17------7-----5-----| Play once before lyrics come
A|---17------5-----3-----|
E|---15------5-----3-----|

 G/D                     Am Gm
I know what makes you cry
 G/D                     Am Gm
I know when you mean it
 G/D                     Am Gm
Who knows you better than
I do!


[Bridge]
(Same as Intro)

     C5  G         C5  G   D
e|-------3-------------3---3-----|
B|-------3-------------3---2-----|
G|---4---4---------4---4---3-----|
D|---5---5---------5---5---------| x2
A|---3---5---------3---5---------|
E|-------3-------------3---------|


[Verse]
(Same as previous verse)

 C5              G
I remember
 C5                G  D
I remember that box of letters
 C5                G
I remember that naked photo
 C5                       G  D
And I remember things getting better
 C5              G
I remember
 C5                     G  D
I remember when I met your dad
 C5                    G
I remember all about your mom
 C5                         G  D
I remember what you do on christmas


[Chorus]
    G/D(?)   Am    Gm
e|---15------5-----3-----|
B|---15------5-----3-----|
G|---16------7-----5-----|
D|---17------7-----5-----| Play once before lyrics come
A|---17------5-----3-----|
E|---15------5-----3-----|

 G/D                     Am Gm
I know what makes you cry
 G/D                  Am Gm
I know when you mean it
 G/D                    Am Gm
Who knows you better than
 G/D                              Am Gm
I know everything that freaks you out
 G/D              Am Gm
That makes you mad
 G/D              Am Gm
That makes you melt
Добавлено: 12.07.2017
Другие материалы по этой песне:
  • Аккорды и текст

Страница создана 20.12.2015
http://primanota.ru/bully/i-remember-chords.htm
Привет, Гость.
Предлагаем пройти революционный курс по гитаре.
Подарок от PrimaNota.Ru, забирай!