PrimaNota.ru - самый крупный в мире бесплатный архив песенных текстов, аккордов, табулатур и нот


Bully - Brainfreeze - таба, видео

Регистрация Запомнить меня
Войти через:  Facebook Google Twitter Vk Yandex Mail.ru

Bully - Brainfreeze - таба, видео

Печатать
Просмотров: 61
-------------------------------------------------------------------------------
                             BRAINFREEZE - Bully
-------------------------------------------------------------------------------
Tabbed by:Lauren/gravityt0feel
E-mail: Laurenmusicx3@gmail.com

Tuning: Standard E

I figure out strumming patterns by ear so it is hard for me to tab it but I did my best
(Also, you can figure it out by listening to the song)

INTRO/VERSE:

e|-------------------------------------------|
B|-------------------------------------------|
G|-------------------------------------------| Repeat until "Are you coming on the roof"
D|----5-5-5-5-5--222--7/9/9--5---------------|
A|----5-5-5-5-5--222--7/9/9--5---------------|
E|----3-3-3-3-3--000--5/7/5--3---------------|

CHORUS:
e|---------------------------------------------------------------------------|
B|---------------------------------------------------------------------------|
G|---------------------------------------------------------------------------|
D|----7-7--1414--9-9-9-9-----------------------------------------------------| Repeat Until "We know we're in"
A|----7-7--1414--9-9-9-9-----------------------------------------------------|
E|----5-5--1212--7-7-7-7-----------------------------------------------------|

On the word "for" REPEAT VERSE tab.
REPEAT CHORUS

OUTRO:

Transition (1:53)
e|---------------------------------------------------------------------------|
B|---------------------------------------------------------------------------|
G|---------------------------------------------------------------------------|
D|--5---55555---10--1010101010-----------------------------------------------|
A|--5---55555---10--1010101010-----------------------------------------------|
E|--3---33333---8---8-8-8-8-8------------------------------------------------|


2:04 "I know you're in your room..."
e|---------------------------------------------------------------------------|
B|---------------------------------------------------------------------------|
G|---------------------------------------------------------------------------|
D|--55--55--55--55--1010--1010--1010--1010-----------------------------------| Repeat
A|--55--55--55--55--1010--1010--1010--1010-----------------------------------|
E|--33--33--33--33---88----88----88----88------------------------------------|

GUITAR 1 2:16 (The second, "I can't look at you") 
e|---------------------------------------------------------------------------|
B|---------------------------------------------------------------------------|
G|---------------------------------------------------------------------------|
D|--55555--1010101010---x3--55555--10----------------------------------------|
A|--55555--1010101010-------55555--10----------------------------------------|
E|--33333--8-8-8-8-8--------33333--8-----------------------------------------|

GUITAR 2 (2:14)
e|---------------------------------------------------------------------------|
B|---------------------------------------------------------------------------|
G|-17-16-14-12--12121212121212-1414141414--x3--121212121212-16~--------------|
D|---------------------------------------------------------------------------|
A|---------------------------------------------------------------------------|
E|---------------------------------------------------------------------------|


************************************

| /   slide up
| \   slide down
| h   hammer-on
| p   pull-off
| ~   vibrato
| +   harmonic
| x   Mute note
| b   Bend
| pb  Pre-bend
| br  Bend release
| pbr Pre-bend release
| brb Bend release bend

************************************
Добавлено: 13.06.2016
Другие материалы по этой песне:
  • Аккорды и текст

Страница создана 13.06.2016
http://primanota.ru/bully/brainfreeze-chords.htm
Привет, Гость.
Предлагаем пройти революционный курс по гитаре.
Подарок от PrimaNota.Ru, забирай!