PrimaNota.ru - самый крупный в мире бесплатный архив песенных текстов, аккордов, табулатур и нот


Bullfrog Tribute - 5 Senses - таба, видео

Регистрация Запомнить меня
Войти через:  Facebook Google Twitter Vk Yandex Mail.ru

Bullfrog Tribute - 5 Senses - таба, видео

Печатать
Просмотров: 78
artist: bullfrog tribute
        www.bullfrogtribute.com
song:   5 senses

                  | intro/verses/chorus |
guitar 1 (acoustic)
listen to the song to get julian's strumming pattern down
e-0---(0)-0------X-X---X-X-X--X--X-X-X-X-X----
B-0h1-(1)-1------X-X---6-6-6--5--5-5-5-5-5----
G-0---(0)-0------5-4---5-5-5--5--5-5-5-5-5---- repeat
D-0h2-(2)-2------0-0---3-3-3--3--3-3-3-3-3----
A-0---(0)-0------X-X---X-X-X--X--X-X-X-X-X----
E------------0h3-3-3---X-X-X--X--X-X-X-X-X--3-

guitar 2 (electric)
lane plays this and other stuff throughout the song
e--5~~5~~5~~--
B---8~~8~~8~~-
G-5~~5~~5~~--- repeat
D-------------
A-------------
E-------------

                       | bridge |
constant strumming
e--0----0---0-----0--3-3-3-3---0----0---0-----0--3-0-3-0-
B--3----3---3----/1--1-0-1-3--/3----3---3----/1--1-1-1-1-
G--0----0---0-----0--0-0-0-0---0----0---0-----0--0-0-0-0-
D--4----0---0h4--/2--2-2-2-2--/4----0---0h4--/2--2-2-2-2-
A--5----5---5-----0--0-0-0-0--/5----5---5-----0--0-0-0-0-
E--------------------------------------------------------

e--0----0---0-----0--3-3-3-3---0-------------0-
B--3----3---3----/1--1-0-1-3--/3------------/8-
G--0----0---0-----0--0-0-0-0---0-------------0-
D--4----0---0h4--/2--2-2-2-2--/4------------/9-
A--5----5---5-----0--0-0-0-0--/5------------/7-
E--------------------------------------------0-
     
Добавлено: 09.06.2013
Другие материалы по этой песне:
  • Аккорды и текст

Страница создана 09.06.2013
http://primanota.ru/bullfrog-tribute/5-senses-chords.htm
Привет, Гость.
Предлагаем пройти революционный курс по гитаре.
Подарок от PrimaNota.Ru, забирай!