PrimaNota.ru - самый крупный в мире бесплатный архив песенных текстов, аккордов, табулатур и нот


Bullets And Octane - Sweet Dreams - текст песни, бас-таба, видео

Регистрация Запомнить меня
Войти через:  Facebook Google Twitter Vk Yandex Mail.ru

Bullets And Octane - Sweet Dreams - текст песни, бас-таба, видео

Печатать
Просмотров: 120
                This song is Sweet Dreams by bullets and octane
                Enjoy.please rate and comment peace.


BASS COMES IN AFTER 26 SECONDS.

Verse
G-----------------------------------------------------------|
D-----------------------------------------------------------|
A-1-1-1-1-1-4-4-1-1-1-1-1-4-4-1-1-1-1-1-4-4-6-6-6-6-9-9-9-9-|  X2
E-----------------------------------------------------------|

Prechoras
G---------------------|
D---------------------|
A-1-1--1-1--1-1---6-6-|
E--------------4-4----|

Choras
G-----------------------------------------------------------------|
D-----------------------------------------------------------------|
A-1-1-1-1-1-1-1-1-4-4-4-4-4-4-4-4-6-6-6-6-6-6-6-6-9-9-9-9-9-9-9-9-| x2
E-----------------------------------------------------------------|

No Bass In Verse 2

Choras
G-----------------------------------------------------------------|
D-----------------------------------------------------------------|
A-1-1-1-1-1-1-1-1-4-4-4-4-4-4-4-4-6-6-6-6-6-6-6-6-9-9-9-9-9-9-9-9-| x2
E-----------------------------------------------------------------|

Bridge
G---------------------------------------------------|
D---------------------------------------------------|
A-1-1-1-1-1-1-6-6-1-1-1-1-1-1-6-6-1-1-1-1-1-1-6-6-8-|
E---------------------------------------------------|

G-----------------------------------------------------------------|
D-----------------------------------------------------------------|
A-1-1-1-1-1-1-1-1-3-3-3-3-4-4-4-4-6-6-6-6-6-6-6-6-9-9-9-9-9-9-9-9-| X2
E-----------------------------------------------------------------|

Outro
G-----------------|
D-----------------|
A-1-1-1-1-1-1-2-2-| X3
E-----------------|
Добавлено: 20.06.2012
Другие материалы по этой песне:
  • Аккорды и текст

Страница создана 11.03.2012
http://primanota.ru/bullets-and-octane/sweet-dreams-chords.htm
Привет, Гость.
Предлагаем пройти революционный курс по гитаре.
Подарок от PrimaNota.Ru, забирай!