PrimaNota.ru - самый крупный в мире бесплатный архив песенных текстов, аккордов, табулатур и нот


Bullets And Octane - Return - таба, видео

Регистрация Запомнить меня
Войти через:  Facebook Google Twitter Vk Yandex Mail.ru

Bullets And Octane - Return - таба, видео

Печатать
Просмотров: 108
                             RETURN- Bullets and Octane

Tabbed by: Epicat12
Email:dwokson@live.com

Tuning:Standard (EADGBe)

Intro
Play and p.m. each note here 16 times, until the 11-9 power chord.

e|----------------------------------------------------------------------------|
B|----------------------------------------------------------------------------|
G|----------------------------------------------------------------------------|
D|----6-8---------------------------------------------------------------------|
A|-8--4-6-----x-x----11-11-11-11-11-11-11-11-----6666666----------------------|
E|-6----------x-x-----9--9--9--9--9--9--9--9-----4444444----------------------|
      (these x's (ticks) are for 11-9. Tick it twice before playing it loud)
Verse
e|----------------------------------------------------------------------------|
B|----------------------------------------------------------------------------|
G|----------------------------------------------------------------------------|
D|----------------------------------x-x--6-66--x-x--6-66--x-x--6-6------------|
A|--x-x--8-88--x-x--8-88--x-x--8-8--x-x--4-44--x-x--4-44--x-x--4-4------------|
E|--x-x--6-66--x-x--6-66--x-x--6-6--------------------------------------------|
    (These x's mean to p.m. the notes in-between playing them loud. After these, just 
p.m. the notes you would play "loud" otherwise.)
e|----------------------------------------------------------------------------|
B|----------------------------------------------------------------------------|
G|----------------------------------------------------------------------------|
D|--x-x--8--88--x-x--8--88--x-x--8-8------------------------------------------|
A|--x-x--6--66--x-x--6--66--x-x--6-6--x-x--11-11-11-x-x--10-10--6-6--8--------|
E|------------------------------------x-x---9--9--9-x-x---8--8--4-4--6--------|
(Do the last two twice)
The p.m. part here could either be
e|----------------------------------------------------------------------------|
B|----------------------------------------------------------------------------|
G|----------------------------------------------------------------------------|
D|---3-3-6-6-8-8--3-3-6-6-8-8---3-3-6-6---------------------------------------|
A|----------------------------------------------------------------------------|
E|----------------------------------------------------------------------------|
or
e|----------------------------------------------------------------------------|
B|----------------------------------------------------------------------------|
G|----------------------------------------------------------------------------|
D|----------------------------------------------------------------------------|
A|-8-8-11-11-13-13-8-8-11-11-13-13--8-8-11-11---------------------------------|
E|----------------------------------------------------------------------------|
Chorus
The most I can figure out for this part is a basic rhythm:
e|----------------------------------------------------------------------------|
B|----------------------------------------------------------------------------|
G|----------------------------------------------------------------------------|
D|----------------------------------------------------------------------------|
A|-4-4-4-4-4--6-6-6-6-6--8-8-8-8-8-8-8-8-8-8-8-8------------------------------|
E|-2-2-2-2-2--4-4-4-4-4--6-6-6-6-6-6-6-6-6-6-6-6------------------------------|

Then back to verse:

e|----------------------------------------------------------------------------|
B|----------------------------------------------------------------------------|
G|----------------------------------------------------------------------------|
D|----------------------------------x-x--6-66--x-x--6-66--x-x--6-6------------|
A|--x-x--8-88--x-x--8-88--x-x--8-8--x-x--4-44--x-x--4-44--x-x--4-4------------|
E|--x-x--6-66--x-x--6-66--x-x--6-6--------------------------------------------|
    (These x's mean to p.m. the notes in-between playing them loud. After these, just 
p.m. the notes you would play "loud" otherwise.)
e|----------------------------------------------------------------------------|
B|----------------------------------------------------------------------------|
G|----------------------------------------------------------------------------|
D|--x-x--8--88--x-x--8--88--x-x--8-8------------------------------------------|
A|--x-x--6--66--x-x--6--66--x-x--6-6--x-x--11-11-11-x-x--10-10--6-6--8--------|
E|------------------------------------x-x---9--9--9-x-x---8--8--4-4--6--------|
(Do the last two twice)
The p.m. part here could either be
e|----------------------------------------------------------------------------|
B|----------------------------------------------------------------------------|
G|----------------------------------------------------------------------------|
D|---3-3-6-6-8-8--3-3-6-6-8-8---3-3-6-6---------------------------------------|
A|----------------------------------------------------------------------------|
E|----------------------------------------------------------------------------|
or
e|----------------------------------------------------------------------------|
B|----------------------------------------------------------------------------|
G|----------------------------------------------------------------------------|
D|----------------------------------------------------------------------------|
A|-8-8-11-11-13-13-8-8-11-11-13-13--8-8-11-11---------------------------------|
E|----------------------------------------------------------------------------|
Then Chorus again:

The most I can figure out for this part is a basic rhythm:
e|----------------------------------------------------------------------------|
B|----------------------------------------------------------------------------|
G|----------------------------------------------------------------------------|
D|----------------------------------------------------------------------------|
A|-4-4-4-4-4--6-6-6-6-6--8-8-8-8-8-8-8-8-8-8-8-8------------------------------|
E|-2-2-2-2-2--4-4-4-4-4--6-6-6-6-6-6-6-6-6-6-6-6------------------------------|
Let 8-6 ring out.
e|----------------------------------------------------------------------------|
B|----------------------------------------------------------------------------|
G|----------------------------------------------------------------------------|
D|----------------------------------------------------------------------------|
A|--8-8-8--11-11-11--13-13-13--14-14-14-14------------------------------------|
E|--6-6-6---9--9--9--11-11-11--12-12-12-12------------------------------------|
Do this four times, lead does:
e|--9-8-6-9-8-6-9-8-6-9-8-6-9-8-6-4-1-4-1------------------------------------|
B|------------------------------------------1-1-4-4b-------------------------|
G|---------------------------------------------------------------------------|
D|---------------------------------------------------------------------------|
A|---------------------------------------------------------------------------|
E|---------------------------------------------------------------------------|
Then back to chorus:
The most I can figure out for this part is a basic rhythm:
e|----------------------------------------------------------------------------|
B|----------------------------------------------------------------------------|
G|----------------------------------------------------------------------------|
D|----------------------------------------------------------------------------|
A|-4-4-4-4-4--6-6-6-6-6--8-8-8-8-8-8-8-8-8-8-8-8------------------------------|
E|-2-2-2-2-2--4-4-4-4-4--6-6-6-6-6-6-6-6-6-6-6-6------------------------------|

After this it seems that some kind of pedal-effect comes on, I can't hear what that part 
is through the distortion. End with

e|----------------------------------------------------------------------------|
B|----------------------------------------------------------------------------|
G|----------------------------------------------------------------------------|
D|---3-3-6-6-8-8--3-3-6-6-8-8---3-3-6-6---------------------------------------|
A|----------------------------------------------------------------------------|
E|----------------------------------------------------------------------------|
or
e|----------------------------------------------------------------------------|
B|----------------------------------------------------------------------------|
G|----------------------------------------------------------------------------|
D|----------------------------------------------------------------------------|
A|-8-8-11-11-13-13-8-8-11-11-13-13--8-8-11-11---------------------------------|
E|----------------------------------------------------------------------------|
 And do
e|----------------------------------------------------------------------------|
B|----------------------------------------------------------------------------|
G|----------------------------------------------------------------------------|
D|----------------------------------------------------------------------------|
A|--8-8-8--11-11-11--13-13-13--14-14-14-14------------------------------------|
E|--6-6-6---9--9--9--11-11-11--12-12-12-12------------------------------------|
Once. and end on
e|----------------------------------------------------------------------------|
B|----------------------------------------------------------------------------|
G|----------------------------------------------------------------------------|
D|----------------------------------------------------------------------------|
A|--8-------------------------------------------------------------------------|
E|--6-------------------------------------------------------------------------|

Well, that's about it! E-mail with questions, concerns, or whatever!
************************************

| /   slide up
| \   slide down
| h   hammer-on
| p   pull-off
| ~   vibrato
| +   harmonic
| x   Mute note
| b   Bend
| pb  Pre-bend
| br  Bend release
| pbr Pre-bend release
| brb Bend release bend

************************************
Добавлено: 27.04.2012
Другие материалы по этой песне:
  • Аккорды и текст

Страница создана 27.04.2012
http://primanota.ru/bullets-and-octane/return-chords.htm
Привет, Гость.
Предлагаем пройти революционный курс по гитаре.
Подарок от PrimaNota.Ru, забирай!