PrimaNota.ru - самый крупный в мире бесплатный архив песенных текстов, аккордов, табулатур и нот


Bullets And Octane - Professional Victim - текст песни, бас-таба, видео

Регистрация Запомнить меня
Войти через:  Facebook Google Twitter Vk Yandex Mail.ru

Bullets And Octane - Professional Victim - текст песни, бас-таба, видео

Печатать
Просмотров: 161
Уроки эстрадного вокала в Санкт-Петербурге
Here it goes...

=Intro=
G----------|
D----------|
A----------|
D-44-44-44-|

=Couplet=
G--------------------------------|
D--------------------------------|
A---555----555----555------------|
D-44---2/44---2/44---2/99999-7-9-|

=Chorus=
G----------------------------------------|
D----------------------------------------|
A-----------------x7---------------------|
D-12-1212121212-x7---12-1212121212-x7-x6-|

G-----------------------------------|
D-----------------------------------|
A------------------5555555555555555-|
D-44444444-22222222-----------------|

=Couplet=
G-------------------------------------|
D-------------------------------------|
A---555----555----555---------0-------|
D-44---2/44---2/44---2/4--2-4---4-2-4-|

G--------------------------------|
D--------------------------------|  2x
A---555----555----555------------|
D-44---2/44---2/44---2/99999-7-9-|

=Chorus=
G----------------------------------------|
D----------------------------------------|
A-----------------x7---------------------|
D-12-1212121212-x7---12-1212121212-x7-x6-|

G----------------------------------------|
D----------------------------------------|
A------------------55555555555-777777777-|
D-44444444-22222222----------------------|

=Break= ( first seconds no bass)
G-----------------------|
D-----------------------|
A-----------------------|
D-44-44-44--44-66-77-99-|

=Chorus=
G----------------------------------------|
D----------------------------------------|  2x
A-----------------x7---------------------|
D-12-1212121212-x7---12-1212121212-x7-x6-|

G----------------------------------------|
D----------------------------------------|
A------------------55555555555-777777777-|
D-44444444-22222222----------------------|

G----------------------------------------|
D----------------------------------------|
A-----------------x7---------------------|
D-12-1212121212-x7---12-1212121212-x7-x6-|

G----------------------------------------|
D----------------------------------------|
A------------------55555555555-777777777-|
D-44444444-22222222----------------------|

=Outro= (first seconds no bass)
G------------------------------------|
D------------------------------------|
A---555----555----555---------00-----|
D-44---2/44---2/44---2/44-2-4----44~-|

Plz rate this tab ^^
Добавлено: 16.05.2012
Другие материалы по этой песне:
  • Аккорды и текст

Страница создана 16.05.2012
http://primanota.ru/bullets-and-octane/professional-victim-chords.htm
Привет, Гость.
Предлагаем пройти революционный курс по гитаре.
Подарок от PrimaNota.Ru, забирай!