PrimaNota.ru - самый крупный в мире бесплатный архив песенных текстов, аккордов, табулатур и нот


Bullets And Octane - Pirates Live - бас-таба, видео

Регистрация Запомнить меня
Войти через:  Facebook Google Twitter Vk Yandex Mail.ru

Bullets And Octane - Pirates Live - бас-таба, видео

Печатать
Просмотров: 153
Here's the link to hear this number,
because the intro is a little different then normal:
http://www.youtube.com/watch?v=5yiusyi_CoM&feature=related

=Intro=
G-------------------------------|
D-------------------------------|
A----------3333-----------------|
D-1111-3333----6666-11111111-3~-|

G----------------------------------------|
D----------------------------------------|
A-3333--------------3333-----------------|
D-----6666-1111-3333----6666-11111111-3~-|

=Couplet=
G-----------------------------|
D-----------------------------|  2x
A-3-3-33--6-6-66--------------| 
D---------------6-6-66--66-55-|

=Chorus=
G----------------------------------|
D----------------------------------|
A-3-3-3333--------6-6-6666---------|
D---------6-6-6666--------8-8-8888-|

=riff=
G-----------------------------|
D-----------------------------|
A-3-3-33--6-6-66--------------| 
D---------------6-6-66--66-88-|

=riff2=
G---------------------------------|
D---------------------------------|  2x
A---------------------------------|
D-33-3333-333-33--55-5555-88-8888-|

=Couplet=
G-----------------------------|
D-----------------------------|  2x
A-3-3-33--6-6-66--------------| 
D---------------6-6-66--66-55-|

=Chorus=
G----------------------------------|
D----------------------------------|
A-3-3-3333--------6-6-6666---------|
D---------6-6-6666--------8-8-8888-|

=riff=
G-----------------------------|
D-----------------------------|
A-3-3-33--6-6-66--------------| 
D---------------6-6-66--66-88-|

=riff2=
G---------------------------------|
D---------------------------------|  2x
A---------------------------------|
D-33-3333-333-33--55-5555-88-8888-|

=Bridge=
G--------------------------|
D--------------------------|  4x (last time: don't play the 8's,
A-333333-66----------------|       but play the 3!)
D----------555555-(88)-(3~)| 

=Chorus=
G----------------------------------|
D----------------------------------| (only second time)
A-3-3-3333--------6-6-6666---------|
D---------6-6-6666--------8-8-8888-|

=riff2=
G---------------------------------|
D---------------------------------|  6x
A---------------------------------|
D-33-3333-333-33--55-5555-88-8888-|

=Outro=
G-----------|
D-----------|
A-3-3~----3-|
D-----3/5---|

plz rate this tab! I'll hope u enjoyed it!


Добавлено: 21.06.2012
Другие материалы по этой песне:
  • Аккорды и текст

Страница создана 21.06.2012
http://primanota.ru/bullets-and-octane/pirates-live-chords.htm
Привет, Гость.
Предлагаем пройти революционный курс по гитаре.
Подарок от PrimaNota.Ru, забирай!