PrimaNota.ru - самый крупный в мире бесплатный архив песенных текстов, аккордов, табулатур и нот


Bullets And Octane - My Disease - текст песни, таба, бас-таба, видео

Регистрация Запомнить меня
Войти через:  Facebook Google Twitter Vk Yandex Mail.ru

Bullets And Octane - My Disease - текст песни, таба, бас-таба, видео

Печатать
Просмотров: 247
Уроки эстрадного вокала в Санкт-Петербурге
Drop D Tuning
E B G D A D
~- let ring
x- finger rest

E--0~~--
B--0~~--
G--0~~--
D--2~~--
A--0~~--
D--0~~--

1st Guitar
E------------------------|
B-------------------7----|
G--xxx-8--8-7---7-----8--|
D--xxx--------7---7------|
A------------------------|
D------------------------|

2nd Guitar
E--------------|
B--------------|
G--------------|
D--9~--6~--1~--|
A--9~--6~--1~--|
D--9~--6~--1~--|
Добавлено: 21.03.2012
Другие материалы по этой песне:

Страница создана 11.03.2012
http://primanota.ru/bullets-and-octane/my-disease-chords.htm
Привет, Гость.
Предлагаем пройти революционный курс по гитаре.
Подарок от PrimaNota.Ru, забирай!