PrimaNota.ru - самый крупный в мире бесплатный архив песенных текстов, аккордов, табулатур и нот


Bullets And Octane - I Ain't Your Savior - текст песни, бас-таба, видео

Регистрация Запомнить меня
Войти через:  Facebook Google Twitter Vk Yandex Mail.ru

Bullets And Octane - I Ain't Your Savior - текст песни, бас-таба, видео

Печатать
Просмотров: 132
Tabbed by: inkms



Intro
G|-------------------------------|
D|-------------------------------|
A|-------------------------------|
D|--7-6-4--7-6-4--7-6-4--7-6-4-1-|


Verse
G|----------------|     |---------------| |----------------|     |---------------|
D|----------------|     |---------------| |----------------|     |---------------|
A|----------------| X8  |---------------| |----------------| X4  |---------------|
D|1-111-111-111-11|     |-7-6-4--7-6-4--| |1-111-111-111-11|     |-7-6-4--7-6-4--|
  ^   ^   ^   ^                            ^   ^   ^   ^


Pre chorus
G|--------------------------------|    |--------------------------------|
D|--------------------------------|    |--------------------------------|
A|----------------6-666-666-666-66| X3 |------------------R---E---S---T-|
D|4-444-446-666-66----------------|    |4-444-446-666-667---------------|
  ^   ^   ^   ^   ^   ^   ^   ^         ^   ^   ^   ^   ^


Chorus
G|----------------------------------------------------------------|
D|----------------------------------------------------------------|
A|----------------------------------------------------------------| 
D|1-111-111-111-114-444-444-444-446-666-666-666-666-666-666-666---|
  ^   ^   ^   ^   ^   ^   ^   ^   ^   ^   ^   ^   ^   ^   ^   ^
G|----------------------------------------------------------------|
D|----------------------------------------------------------------|
A|----------------------------------------------------------------| 
D|1-111-111-111-114-444-444-444-446-666-666-666-66---R--E--S--T---|
  ^   ^   ^   ^   ^   ^   ^   ^   ^   ^   ^   ^   
G|-------------------------------|
D|-------------------------------|
A|-------------------------------|
D|--7-6-4--7-6-4--7-6-4--7-6-4-1-|

Solo
G|----------------------------------------------------------------|
D|----------------------------------------------------------------|
A|----------------------------------------------------------------| 
D|1-111-111-111-114-444-444-444-446-666-666-666-666-666-666-666---|
  ^   ^   ^   ^   ^   ^   ^   ^   ^   ^   ^   ^   ^   ^   ^   ^ 
G|-----------------------------------------------------------------------------------------------|
D|--------------------------------------------------------------------------------------1431-----|
A|------------------------------------------------------------------------------------------41---| 
D|1-111-111-111-114-444-444-444-446-666-666-666-667-6-4-6-7-6-4-6-7-6-46-4-1--1--1--1--1-------1-|
  ^   ^   ^   ^   ^   ^   ^   ^   ^   ^   ^   ^   ^   

Bridge
G|------------------------------------------------------------------------------------------|
D|------------------------------------------------------------------------------------------|
A|-----------------1--1--1------------------------------------------------------------------|
D|13-13-1313-13-131--1--1-1-1-11-1113-33-3334-44-4446-66-6661-11-1113-33-3334-44-4446-66-666|
   ^  ^  ^ ^  ^  ^ ^  ^  ^  ^  ^  ^ ^  ^  ^ ^  ^  ^ ^  ^  ^ ^  ^  ^ ^  ^  ^ ^  ^  ^ ^  ^  ^ 
G|----------------------------------------------------------------------|
D|----------------------------------------------------------------------|
A|----------------------------------------------------------------------|
D|8-88-8888-88-8889-99-9999-99-9998-88-8888-88-888999999999999--R-E-S-T-|
  ^  ^  ^ ^  ^  ^ ^  ^  ^ ^  ^  ^ ^  ^  ^ ^  ^  ^ ^

Ending
G|-----------------------------|
D|-----------------------------|
A|-----------------------------|
D|--7-6-4--7-6-4--7-6-4--1-1-1-|

G|----------------------------------------------------------------|\
D|----------------------------------------------------------------| \
A|----------------------------------------------------------------|  \
D|1-111-111-111-111-111-111-111-114-444-444-444-444-444-444-444-44|   \
  ^   ^   ^   ^   ^   ^   ^   ^   ^   ^   ^   ^   ^   ^   ^   ^        | X2
G|----------------------------------------------------------------|   /
D|----------------------------------------------------------------|  /
A|----------------------------------------------------------------| /
D|6-666-666-666-666-666-666-666-668-888-888-888-888-888-888-888-88|/
  ^   ^   ^   ^   ^   ^   ^   ^   ^   ^   ^   ^   ^   ^   ^   ^ 
G|--------------------------------------------------------------|
D|--------------------------------------------------------------|
A|--------------------------------------------------------------| X3
D|4-444-444-444-446-666-666-666-668-888-888-888-888-888-888-888-|
  ^   ^   ^   ^   ^   ^   ^   ^   ^   ^   ^   ^   ^   ^   ^   ^   
G|----------------------------------------------------------------|
D|----------------------------------------------------------------|
A|----------------------------------------------------------------|
D|4-444-444-444-446-666-666-666-668---8---8---8-881---1---1---1-11|
  ^   ^   ^   ^   ^   ^   ^   ^   ^   ^   ^   ^   ^   ^   ^   ^   
G|----------------------------------------------|
D|----------------------------------------------|
A|----------------------------------------------|
D|--7-6-4--7-6-4--7-6-4--7-6-4-1---1---1----1~~-|

^=accented note
~=let ring
Добавлено: 08.10.2013
Другие материалы по этой песне:
  • Аккорды и текст

Страница создана 25.07.2012
http://primanota.ru/bullets-and-octane/i-aint-your-savior-chords.htm
Привет, Гость.
Предлагаем пройти революционный курс по гитаре.
Подарок от PrimaNota.Ru, забирай!