PrimaNota.ru - самый крупный в мире бесплатный архив песенных текстов, аккордов, табулатур и нот


Bullets And Octane - Holdin On - текст песни, таба, видео

Регистрация Запомнить меня
Войти через:  Facebook Google Twitter Vk Yandex Mail.ru

Bullets And Octane - Holdin On - текст песни, таба, видео

Печатать
Просмотров: 130
Tabbed by: $corpion

This is my 1st Tab and I hope you like it. I made it because I found none
to Holdin' On but I thought this is a great Song that I must play ;)

-Verse 1:

e|-------------------------------------------------------------------|
B|-------------------------------------------------------------------|
G|-------------------------------------------------------------------|
D|--10-10-10---8-8-8---10-10-10---8-8-8---10-10-10---8-8-8---3-3-3---|
A|--10-10-10---8-8-8---10-10-10---8-8-8---10-10-10---8-8-8---3-3-3---|
E|--8--8--8----6-6-6---8--8--8----6-6-6---8--8--8----6-6-6---1-1-1---|

  -------------|
  -------------|
  -------------| {2x}
  --11-11-11---|
  --11-11-11---|
  --9--9--9----|

-Verse 1 P.M.

-Verse 2:

e|----------------------------------------------------------------------|
B|----------------------------------------------------------------------|
G|----------------------------------------------------------------------|
D|------------------------------------10-10-10--8-8-8--10-10-10--8-8-8--|
A|--8888-10101010-11111111-13131313---10-10-10--8-8-8--10-10-10--8-8-8--|
E|------------------------------------8--8--8---6-6-6--8--8--8---6-6-6--|

  ------------------------------------------------------------------|
  ------------------------------------------------------------------|
  ------------------------------------------------------------------|
  ------------------------------------------------------------------|
  --8888-10101010-11111111-13131313-8888-10101010-1111111111111111--|
  ------------------------------------------------------------------|

-Riff 1:

e|---------|
B|---------|
G|---------|
D|--3-3-3--|
A|--3-3-3--|
E|--1-1-1--|

-Chorus:

"I've been waiting just to see..."
e|-------------------------------|
B|-------------------------------|
G|-------------------------------| {4x}
D|--11-------8--------3----------|
A|--11-{8x}--8-{16x}--3-{8x}-----|
E|--9--------6--------1----------|

-Verse 2

-Riff 1

-Chorus

-Verse 3:

e|-----------------------------------------------------------------------|
B|-----------------------------------------------------------------------|
G|-----------------------------------------------------------------------|
D|--11--11--11-11---8-8-8--8-8---3--3--3-3---6-6-6--6-6----11--11-11-11--|
A|--11--11--11-11---8-8-8--8-8---3--3--3-3---6-6-6--6-6----11--11-11-11--|
E|--9---9---9--9----6-6-6--6-6---1--1--1-1---4-4-4--4-4----9---9--9--9---|

  -------------------------------------------------------------|
  -------------------------------------------------------------|
  --8-8-8--8-8--3-3-3x-3x-3-3-3x-3x-3-3-3x-3x-3-3-3x-3x-3x-3x--|
  --8-8-8--8-8--3-3-3x-3x-3-3-3x-3x-3-3-3x-3x-3-3-3x-3x-3x-3x--|
  --6-6-6--6-6--1-1-1x-1x-1-1-1x-1x-1-1-1x-1x-1-1-1x-1x-1x-1x--|

-Solo:

e|--------------------------------------------------------------------------|
B|--------------------------------------------------------------------------|
G|--------------------------------------------------------------------------|
D|--15-15-------------------------------------------------------------------|
A|--------15-15-18-18-16-16-15-15-11-11-13-13-13--16-15-16-15~-11-10-11-10~-|
E|--------------------------------------------------------------------------|

  -------------------------------------------------------------------------|
  -------------------------------------------------------------------------|
  --------------15-15------------------------------------------------------|
  --------------------15-15-18-18-16-16-15-15-11-11-13-13-13-16-15-16-15~--|
  --13-13-13-13------------------------------------------------------------|

  [the solo continues but i can't figure out the rest of it]

-Riff 1

-Chorus {4x}

-Verse 4 (palm muted):

e|-------------------------|
B|-------------------------|
G|-------------------------|
D|-------------------------| {6x}
A|--8-8-10-10-11-11-15-15--|
E|-------------------------|

-End:

e|-------|
B|-------|
G|-------|
D|--3-3--|
A|--3-3--|
E|--1-1--|


~[Have Fun]~
Добавлено: 24.07.2012
Другие материалы по этой песне:
  • Аккорды и текст

Страница создана 24.07.2012
http://primanota.ru/bullets-and-octane/holdin-on-chords.htm
Привет, Гость.
Предлагаем пройти революционный курс по гитаре.
Подарок от PrimaNota.Ru, забирай!