PrimaNota.ru - самый крупный в мире бесплатный архив песенных текстов, аккордов, табулатур и нот


Bullets And Octane - Going Blind - текст песни, бас-таба, видео

Регистрация Запомнить меня
Войти через:  Facebook Google Twitter Vk Yandex Mail.ru

Bullets And Octane - Going Blind - текст песни, бас-таба, видео

Печатать
Просмотров: 121
Going Blind - Bullets and Octane

Drop D Tuning (DADG)

INTRO

G|------------------|
D|------------------|
A|------------------|
D|-1--1-1----1--1-1-|
P.M   . .       . .

VERSE

G|--------------|
D|--------------|
A|--------------| x16
D|-1--1-1--4--6-|

PRE-CHORUS

G|---------------|----------------|------|
D|---------------|----------------|------|
A|-4-4-4-4-4-4-4-|5-5-5-5-5-5-5-5-|5/12\-|
D|---------------|----------------|------|
                                   sl.
CHORUS

G|-----------------|----------------|----------------|-------------|--------------|
D|-----------------|----------------|----------------|-------------|--------------|
A|-6-6-6-6-6-6-6-6-|4-4-4-4-4-4-4-4-|3-3-3-3-2-2-1-1-|-------------|--------------|
D|-----------------|----------------|----------------|1--1-1--4--6-|-1--1-1--4--6-|

                                                      /-----------4X-------------\
G|-----------------|----------------|----------------|-------------|--------------|
D|-----------------|----------------|----------------|-------------|--------------|
A|-6-6-6-6-6-6-6-6-|4-4-4-4-4-4-4-4-|3-3-3-3-2-2-1-1-|-------------|--------------|
D|-----------------|----------------|----------------|1--1-1--4--6-|-1--1-1--4--6-|

VERSE

G|-----------------|
D|-1-1-1-1-4-4-6-6-|
A|-----------------| x16
D|-----------------|

PRE-CHORUS

G|---------------|----------------|------|
D|---------------|----------------|------|
A|-4-4-4-4-4-4-4-|5-5-5-5-5-5-5-5-|5/12\-|
D|---------------|----------------|------|
                                   sl.

CHORUS

G|-----------------|----------------|----------------|-------------|--------------|
D|-----------------|----------------|----------------|-------------|--------------|
A|-6-6-6-6-6-6-6-6-|4-4-4-4-4-4-4-4-|3-3-3-3-2-2-1-1-|-------------|--------------|
D|-----------------|----------------|----------------|1--1-1--4--6-|-1--1-1--4--6-|

                                                      
G|-----------------|----------------|----------------|-------------|--------------|
D|-----------------|----------------|----------------|-------------|--------------|
A|-6-6-6-6-6-6-6-6-|4-4-4-4-4-4-4-4-|3-3-3-3-2-2-1-1-|-------------|--------------|
D|-----------------|----------------|----------------|1--1-1--4--6-|-1--1-1--4--6-|

FILL

G|-----------------|----------------|----------------|----------------|
D|-----------------|----------------|----------------|----------------|
A|-----------------|----------------|2-2-2-2-2-2-2-2-|2-2-2-2-2-2-2-2-|
D|-4-4-4-4-4-4-4-4-|6-6-6-6-6-6-6-6-|----------------|----------------|

G|---------------------------------------|
D|---------------------------------------|
A|-6--4--6-----------4-------------------|
D|----------6--7--8-----8--7--6--4--7--6-|

BRIDGE

G|------------------------|
D|-1--1-1--1-1--1--1-1----|
A|----------------------4-| x12
D|------------------------|


SOLO

G|-----------------|----------------|----------------|----------------|
D|-----------------|----------------|----------------|----------------|
A|-6-6-6-6-6-6-6-6-|4-4-4-4-4-4-4-4-|3-3-3-3-2-2-1-1-|----------------|
D|-----------------|----------------|----------------|1-1-3-3-4-4-6-6-|

G|-----------------|----------------|----------------|----------------|
D|-----------------|----------------|----------------|----------------|
A|-----------------|----------------|6-6-6-6-6-6-6-6-|6-6-6-6-6-6-6-6-|
D|-4-4-4-4-4-4-4-4-|6-6-6-6-6-6-6-6-|----------------|----------------|

G|-----------------|----------------|----------------|----------------|
D|-----------------|----------------|----------------|----------------|
A|-----------------|----------------|2-2-2-2-2-2-2-2-|2-2-2-2-2-2-2-2-|
D|-4-4-4-4-4-4-4-4-|6-6-6-6-6-6-6-6-|----------------|----------------|

G|------------------------------------|
D|------------------------------------|
A|-6--4--6-----------4----------------|
D|----------6--7--8-----8--7--6--4--6-|

CHORUS

G|-----------------|----------------|----------------|-------------|--------------|
D|-----------------|----------------|----------------|-------------|--------------|
A|-6-6-6-6-6-6-6-6-|4-4-4-4-4-4-4-4-|3-3-3-3-2-2-1-1-|-------------|--------------|
D|-----------------|----------------|----------------|1--1-1--4--6-|-1--1-1--4--6-|

                                                      
G|-----------------|----------------|----------------|-------------|--------------|
D|-----------------|----------------|----------------|-------------|--------------|
A|-6-6-6-6-6-6-6-6-|4-4-4-4-4-4-4-4-|3-3-3-3-2-2-1-1-|-------------|--------------|
D|-----------------|----------------|----------------|1--1-1--4--6-|-1--1-1--4--6-|

FILL

G|-----------------|----------------|----------------|
D|-----------------|----------------|----------------|
A|-----------------|----------------|6-6-6-6-6-6-6-6-| X2
D|-4-4-4-4-4-4-4-4-|6-6-6-6-6-6-6-6-|----------------|

ENDING

G|----------------|---------------|-------------|-------------|
D|----------------|---------------|-------------|-------------|
A|4-4-4-4-4-4-4-4-|3-3-3-3--2--2--|-1--1--------|-------------|
D|----------------|---------------|-------------|-1-----------|
Добавлено: 14.05.2012
Другие материалы по этой песне:
  • Аккорды и текст

Страница создана 08.05.2012
http://primanota.ru/bullets-and-octane/going-blind-chords.htm
Привет, Гость.
Предлагаем пройти революционный курс по гитаре.
Подарок от PrimaNota.Ru, забирай!