PrimaNota.ru - самый крупный в мире бесплатный архив песенных текстов, аккордов, табулатур и нот


Bullets And Octane - Fallen - текст песни, таба, видео

Регистрация Запомнить меня
Войти через:  Facebook Google Twitter Vk Yandex Mail.ru

Bullets And Octane - Fallen - текст песни, таба, видео

Печатать
Просмотров: 159
Уроки эстрадного вокала в Санкт-Петербурге
----------------------------------------------------------------------------
                             Fallen - Bullets And Octane
----------------------------------------------------------------------------
Tabbed by: Jamie
Submitted by: sam b

Tuning: Standard E (EADGBe)


Intro/Chorus   
Riff A
e|---------------------------|   |-----------------|
B|---------------------------|   |-----------------|
G|------------55-44----------|   |-----------------|
D|--------55--------77-55----|   |---7777-5555-----|
A|---00-77--77---------------|   |-------------7---|
E|---------------------------|   |-----------------|

Backing to intro riff
Riff B
e|--------------------------------------------------|
B|--------------------------------------------------|
G|--22--------2~------------------------------------|
D|--22--------2~--------33-------5555555555555555---|
A|--00--------0~--------33-------5555555555555555---|
E|----------------------11-------3333333333333333---|
PM                               ...........

Backing to Intro & Chorus
Riff C
e|----------------------------------------------------------------------|
B|----------------------------------------------------------------------|
G|--2222222222222222---------------------2222222222222222---------------|
D|--2222222222222222--33333333-55555555--2222222222222222--33333333--5--|
A|--0000000000000000--33333333-55555555--0000000000000000--33333333--5--|
E|--------------------11111111-33333333--------------------11111111--3--|

Verse
Riff D
e|----------------------------------------------|
B|----------------------------------------------|
G|--2--------------------22-2-2-2-2-------------|
D|--2-let-ring---3---5---22-2-2-2-2-<



	
	
Добавлено: 25.06.2012
Другие материалы по этой песне:

Страница создана 07.04.2012
http://primanota.ru/bullets-and-octane/fallen-chords.htm
Привет, Гость.
Предлагаем пройти революционный курс по гитаре.
Подарок от PrimaNota.Ru, забирай!