PrimaNota.ru - самый крупный в мире бесплатный архив песенных текстов, аккордов, табулатур и нот


Bullets And Octane - Caving In - текст песни, бас-таба, видео

Регистрация Запомнить меня
Войти через:  Facebook Google Twitter Vk Yandex Mail.ru

Bullets And Octane - Caving In - текст песни, бас-таба, видео

Печатать
Просмотров: 116
I don't have much to say, so...
Here it is...

=Intro=
G----------------------------|
D----------------------------|
A----------------------------|
D-8-6-8-6-8--8-6-8-6-8--8-2~-|

=Couplet=
G----------------------------------------------------|
D----------------------------------------------------|  4x
A--------------------------------------1-------------|
D-8-6-8-9-8-6-8-6--8-6-8-9-8-6-8-6-4444-4-3333-6-3-6-|

=Riff=
G--------------------------------------------------------------|
D--------------------------------------------------------------| 
A----------11111111---1--1--1--1-------------------------------|
D-11111111----------11-11-11-11---1111111111111111-33333333-2~-|

=Chorus=
G----------------------------------|
D----------------------------------|
A-1111-1---------------------------|
D-------13131313-13/4444-4-666-222-|

G------------------------------------------|
D------------------------------------------|(play the elevens fast but other
A-1111-1-----------------------------------| wise you can't see that they are
D-------13131313-13/4444-4-11-11-11-131313-| elevens)

G-------------------------------------|
D-------------------------------------|  
A-11-111-1----------------------------|
D---------11-111-1-44-444-4-66-6-22-2-|

G-------------------------------------------|
D-------------------------------------------|
A-11-111-1----------------------------------|
D---------11-111-1-44-444-4-11-11-11-131313-|

=Couplet=
G----------------------------------------------------|
D----------------------------------------------------|  4x
A--------------------------------------1-------------|
D-8-6-8-9-8-6-8-6--8-6-8-9-8-6-8-6-4444-4-3333-6-3-6-|

=Riff=
G--------------------------------------------------------------|
D--------------------------------------------------------------| 
A----------11111111---1--1--1--1-------------------------------|
D-11111111----------11-11-11-11---1111111111111111-33333333-2~-|

=Chorus=
G----------------------------------|
D----------------------------------|
A-1111-1---------------------------|
D-------13131313-13/4444-4-666-222-|

G------------------------------------------|
D------------------------------------------|(play the elevens fast but other
A-1111-1-----------------------------------| wise you can't see that they are
D-------13131313-13/4444-4-11-11-11-131313-| elevens)

G-------------------------------------|
D-------------------------------------|  
A-11-111-1----------------------------|
D---------11-111-1-44-444-4-66-6-22-2-|

G-------------------------------------------|
D-------------------------------------------|
A-11-111-1----------------------------------|
D---------11-111-1-44-444-4-11-11-11-131313-|

=Bridge=
G----------------------------------------------------|
D----------------------------------------------------|
A-------------111111111111---------------------------|
D-444444444444------------44444444-66666666-33333333-|

G----------------------------------------------------------------|
D----------------------------------------------------------------|
A------------------1111111111111111------------------------------|
D-44444444-66666666----------------44444444-66666666-33333333-2~-|

=Chorus=
G------------------------------------------|
D------------------------------------------|(play the elevens fast but other
A-1111-1-----------------------------------| wise you can't see that they are
D-------13131313-13/4444-4-11-11-11-131313-| elevens)

G-------------------------------------|
D-------------------------------------|  
A-11-111-1----------------------------|
D---------11-111-1-44-444-4-66-6-22-2-|

G-------------------------------------------|
D-------------------------------------------|
A-11-111-1----------------------------------|
D---------11-111-1-44-444-4-11-11-11-131313-|

=Outro=
G-----|
D-----| (play it 'till it stops)
A-----|
D-8-6-|

that's all!

Couplet: sometimes the 8-9-8 played little earlyer or later just listen.
If you don't hear it, then I said nothing!

Please rate this tab! thx!
Добавлено: 25.02.2012
Другие материалы по этой песне:

Страница создана 25.02.2012
http://primanota.ru/bullets-and-octane/caving-in-chords.htm
Привет, Гость.
Предлагаем пройти революционный курс по гитаре.
Подарок от PrimaNota.Ru, забирай!