PrimaNota.ru - самый крупный в мире бесплатный архив песенных текстов, аккордов, табулатур и нот


Bullets And Octane - Cancer California - текст песни, бас-таба, видео

Регистрация Запомнить меня
Войти через:  Facebook Google Twitter Vk Yandex Mail.ru

Bullets And Octane - Cancer California - текст песни, бас-таба, видео

Печатать
Просмотров: 125
Bullets and Octane - Cancer California

Artist: Bullets and Octane
B&O's Homepage: www.bullets-and-octane.com
Album: In The Mouth Of The Young
Song: Cancer California
From : Robert Williams (drbobert@gmail.com)

----------------------

While the guitars are in drop D, the bass can be played in E, as tabbed here.

     
G||-------|-------|-------|-------|-------|-------|----------------------|
D||-------|-------|-------|-------|-------|-------|----------------------|
A||-------|-------|-------|-------|-------|-------|--0-------------------|
E||-------|-------|-------|-------|-------|-------|------------4---------|

--------------------------|--------------------4--1--|
-----------1--2--1--------|--------------------------|
--4--2--4-----------4--2--|-----------2--------------|
--------------------------|--4--2--4-----4--2--------|

-----------1--2--1--------|--------------------|--------------------------|
--4--2--4-----------4-----|--------------------|-----------1--2--1--------|
-----------------------0--|--2--------3--------|--4--2--4-----------4--2--|
--------------------------|--------------------|--------------------------|

--------------------4--1--|-----------1--2--1--------|--------------------|
--------------------------|--4--2--4-----------4-----|--------------------|
-----------2--------------|-----------------------0--|--2--------3--------|
--4--2--4-----4--2--------|--------------------------|--------------------|

-----------------------------|-----------------------------|
--------------------1-2-1----|--------------------1-2-1----|
--4--4--2--4---4-4--------4--|--4--4--2--4---4-4--------4--|
-----------------------------|-----------------------------|

-------------------------|--------2--1--------1-----|--------------------------|
--------1----------1-----|-----------------------1--|--------------------------|
--2--2-----2----2-----2--|--0--0--------------------|--4--4--4--4--4--4--4--4--|
-------------------------|--------------4--4--------|--------------------------|

--------------------------|--------------------------|
--------------------------|--------------------------|
--4--4--4--4--4--4--4--4--|--2--2--2--2--2--2--2--2--|
--------------------------|--------------------------|

--------------------------|--------------------------|
--------------------------|--------------------------|
--0--0--0--0--------3--3--|--4--4--4--4--4--4--4--4--|
--------------4--4--------|--------------------------|

--------------------------|--------------------------|
--------------------------|--------------------------|
--4--4--4--4--4--4--4--4--|--2--2--2--2--2--2--2--2--|
--------------------------|--------------------------|

--------------------------|--------------------------|
--------------------------|--------------------------|
--0--0--0--0--------3--3--|--0--0--0--0--0--0--0--0--|
--------------4--4--------|--------------------------|

--------------------------|--------------------------|
--------------------------|--------------------------|
--4--4--4--4--4--4--4--4--|--0--0--0--0--0--0--0--0--|
--------------------------|--------------------------|

--------------------------|--------------------------|
--------------------------|--------------------------|
--4--4--4--4--4--4--4--4--|--0--0--0--0--0--0--0--0--|
--------------------------|--------------------------|

--------------------------|------------------------|--------------------------|
--------------------------|------------------------|-----------1--2--1--------|
--------------------------|------------------------|--4--2--4-----------4--2--|
--4--4--4--4--4--4--4--4--|--4--4--4--4--4---------|--------------------------|

--------------------4--1--|-----------1--2--1--------|--------------------|
--------------------------|--4--2--4-----------4-----|--------------------|
-----------2--------------|-----------------------0--|--2--------3--------|
--4--2--4-----4--2--------|--------------------------|--------------------|

--------------------------|--------------------4--1--|
-----------1--2--1--------|--------------------------|
--4--2--4-----------4--2--|-----------2--------------|
--------------------------|--4--2--4-----4--2--------|

-----------1--2--1--------|--------------------|-----------|
--4--2--4-----------4-----|--------------------|-----------|
-----------------------0--|--2--------3--------|-----------|
--------------------------|--------------------|-----------|

---------------------|--------------------------|--------------------------|
---------------------|--------------------------|--------------------------|
---------------\0----|--0--0--0--0--0--0--0--0--|--------------3--3--3--3--|
---------------------|--------------------------|--4--4--4--4--------------|

--------------------------|--------------------------|
--------------------------|--------------------------|
--4--4--4--4--4--4--4--4--|--4--4--4--4--4--4--4--4--|
--------------------------|--------------------------|

--------------------------|--------------------------|
--------------------------|--------------------------|
--0--0--0--0--0--0--0--0--|--------------3--3--3--3--|
--------------------------|--4--4--4--4--------------|

--------------------------|--------------------------|
--------------------------|--------------------------|
--4--4--4--4--4--4--4--4--|--4--4--4--4--4--4--4--4--|
--------------------------|--------------------------|

--------------------------|--------------------------|--------------------|
--------------------------|--------------------------|--------------------|
--0--0--0--0--0--0--0--0--|--------------3--3--3--3--|--4-----------------|
--------------------------|--4--4--4--4--------------|--------------------|

-----------|-------|-------|-------|-------|-------|--------------------------|
-----------|-------|-------|-------|-------|-------|-----------1--2--1--------|
-----------|-------|-------|-------|-------|-------|--4--2--4-----------4--2--|
-----------|-------|-------|-------|-------|-------|--------------------------|

--------------------4--1--|-----------1--2--1--------|--------------------|
--------------------------|--4--2--4-----------4-----|--------------------|
-----------2--------------|-----------------------0--|--2--------3--------|
--4--2--4-----4--2--------|--------------------------|--------------------|

--------------------------|--------------------4--1--|
-----------1--2--1--------|--------------------------|
--4--2--4-----------4--2--|-----------2--------------|
--------------------------|--4--2--4-----4--2--------|

-----------1--2--1--------|--------------------|--------------------------|
--4--2--4-----------4-----|--------------------|-----------1--2--1--------|
-----------------------0--|--2--------3--------|--4--2--4-----------4--2--|
--------------------------|--------------------|--------------------------|

--------------------4--1--|-----------1--2--1--------|--------------------|
--------------------------|--4--2--4-----------4-----|--------------------|
-----------2--------------|-----------------------0--|--2--------3--------|
--4--2--4-----4--2--------|--------------------------|--------------------|

--------------------------|--------------------4--1--|
-----------1--2--1--------|--------------------------|
--4--2--4-----------4--2--|-----------2--------------|
--------------------------|--4--2--4-----4--2--------|

-----------1--2--1--------|--------------------|---------------------------|
--4--2--4-----------4-----|--------------------|---------------------------|
-----------------------0--|--2--------3--------|--4--4--4--4--4--4--4--4-4-|
--------------------------|--------------------|---------------------------|
  
---------------------------|---------------------------|---------------------||
---------------------------|---------------------------|---------------------||
--4--4--4--4--4--4--4--4-4-|--4--4--4--4--4--4--4--4-4-|--4------------------||
---------------------------|---------------------------|---------------------||

----------------
Добавлено: 21.07.2012
Другие материалы по этой песне:

Страница создана 23.02.2012
http://primanota.ru/bullets-and-octane/cancer-california-chords.htm
Привет, Гость.
Предлагаем пройти революционный курс по гитаре.
Подарок от PrimaNota.Ru, забирай!