PrimaNota.ru - самый крупный в мире бесплатный архив песенных текстов, аккордов, табулатур и нот


Bullets And Octane - Bathroom Floor - текст песни, таба, видео

Регистрация Запомнить меня
Войти через:  Facebook Google Twitter Vk Yandex Mail.ru

Bullets And Octane - Bathroom Floor - текст песни, таба, видео

Печатать
Просмотров: 132
hi guys.
this is my first tab, plz rate.
Bathroom Floor is a great song by a great band hopefully iv done it ok.

TUNE HALF STEP DOWN!


Intro:

|--------------3-3-3-3-------|
|--------------3-3-3-3-------|
|--------------4-4-4-4-------|
|----5-5-5-5---5-5-5-5-------|
|----5-5-5-5---5-5-5-5-------|
|----3-3-3-3---3-3-3-3-------|

Sort of build it up into the full chord...

|---------0-0-0-0-0-0-0--0----0-0-0-0-0-0-0------------2----1--|
|---------5-4-5-6-5-3-1--0----5-4-5-6-5-3-1--0-1-0-0-0-3----1--|
|----5-------------------4-------------------2-2-2-0-0-2----2--|
|----5-------------------2-------------------2-2-2-0-0-0----3--|
|----3-------------------2-------------------0-----2-2------3--|
|------------------------0-------------------------3-3------1--|


Verse:

|------------------------|
|------------------------|
|------------------------|
|------------------------|
|--0--0--0--0------------|
|--------------0--0--0--0|

No guitar for the first bit but you can play the open strings along with the bass if you 
want to...

  Am              Em
|-----------------0----|
|------1---0-1----0----|
|--------2--------0----|   x3
|----2------------2----|
|--0--------------2----|
|-----------------0----|

     D       G
|----2---------3--------|
|----3---------3--------|
|----2---------4--------|
|----0------5--5--------|
|-----------5--5--------|
|-----------3--3--------|

Build up the chords again...


Chorus:

     C        C       Em        Em       Am       G
|----------------------0--------0-----------------3----|
|----------------------0--------0--------1--------3----|
|----5--------5--------0--------0--------2--------0----|
|----5--------5--------2--------2--------2--------0----|
|----3--------3--------2--------2--------0--------2----|
|----------------------0--------0-----------------3----|

    D/F#      F        F
|----2--------1--------1--------|
|----3--------1--------1--------|
|----2--------2--------2--------|
|-------------3--------3--------|
|-------------3--------3--------|
|----2--------1--------1--------|

Listen to the track for timing, strumming, etc.


Repeat verse and chorus


Middle 8

    Dm        G        Em       Am
|----5--------3--------7--------5-------|
|----6--------3--------8--------5-------|
|----7--------4--------9--------5-------|
|----7--------5--------9--------7-------|
|----5--------5--------7--------7-------|
|-------------3-----------------5-------|


     Dm       G        Am   G    Dm       B7
|----5--------3------------------1--------2-----------------|
|----6--------3--------1----0----3--------0-----------------|
|----7--------4--------2----0----2--------2--------1--------|
|----7--------5--------2----0----0--------1--------2--------|
|----5--------5--------0----2-------------2--------2--------|
|-------------3-------------3-------------------------------|


Chorus x2


Last bit

     C        C        E        E        Am       G
|----------------------0--------0-----------------3----|
|----------------------0--------0--------1--------3----|
|----5--------5--------1--------1--------2--------0----|
|----5--------5--------2--------2--------2--------0----|
|----3--------3--------2--------2--------0--------2----|
|----------------------0--------0-----------------3----|

    D/F#      F        Fm       Am
|----2--------1--------1-------------|
|----3--------1--------1--------1----|
|----2--------2--------1--------2----|
|-------------3--------3--------2----|
|-------------3--------3--------0----|
|----2--------1--------1-------------|
Добавлено: 01.05.2012
Другие материалы по этой песне:
  • Аккорды и текст

Страница создана 01.05.2012
http://primanota.ru/bullets-and-octane/bathroom-floor-chords.htm
Привет, Гость.
Предлагаем пройти революционный курс по гитаре.
Подарок от PrimaNota.Ru, забирай!