PrimaNota.ru - самый крупный в мире бесплатный архив песенных текстов, аккордов, табулатур и нот


Bullets And Octane - Bad Things To Bad People - текст песни, бас-таба, видео

Регистрация Запомнить меня
Войти через:  Facebook Google Twitter Vk Yandex Mail.ru

Bullets And Octane - Bad Things To Bad People - текст песни, бас-таба, видео

Печатать
Просмотров: 178
Bad Things to Bad People - Bullets and Octane (B flat/A#)

Standard tuning  (EADG)

INTRO
                 B flat             E
G|-----------------|------------------|
D|-----------------|------------------|
A|-----------------|------------------|
E|-6-6-6-6-6-6-6-6-|6-6-6-6-6-6-6-6\0-|
                                  sl.

VERSE

                 B flat
G|-----------------|----------------|
D|-----------------|----------------|
A|-----------------|----------------| X8
E|-6-6-6-6-6-6-6-4h|6-6-6-6-6-6-6-4h|

PRE-CHORUS
     F#       D#         B flat        F#       D#         B flat
G|-----------------|----------------|----------------|----------------|
D|-----------------|----------------|----------------|----------------|
A|---------6-6-6-6-|----------------|--------6-6-6-6-|----------------| 
E|-2-2-2-2---------|6-6-6-6-6-6-6-6-|2-2-2-2---------|6-6-6-6-6-6-6-6-|
                                                                 
G|-----------------|----------------|--------|
D|-----------------|----------------|--------|
A|---------6-6-6-6-|----------------|------6-| 
E|-2-2-2-2---------|6-6-6-6-2-2-2-2-|2-2-2---|

CHORUS
   B flat     F#           D#
G|-----------------|----------------|
D|-----------------|----------------|
A|-----------------|6-6-6-6-6-6-6-6-| X4
E|-6-6-6-6-2-2-2-2-|----------------|

VERSE

     B flat      G#   B flat      G#
G|-----------------|----------------|
D|-----------------|----------------|
A|-----------------|----------------| X2
E|-6-6-6-6-6-6-6-4h|6-6-6-6-6-6-6-4h|
                B flat (octave)        B Flat maj scale 
G|-----------------|----------------|--------------|---------|
D|-8-8-8-8-8-8-8-6h|8-8-8-8-8-8-8-8-|8-6-8-6--6----|---------|
A|-----------------|----------------|--------8--9-8|-7-------|
E|-----------------|----------------|--------------|---9-7-6-|

VERSE

                 B flat
G|-----------------|----------------|
D|-----------------|----------------|
A|-----------------|----------------| X4
E|-6-6-6-6-6-6-6-4h|6-6-6-6-6-6-6-4h|

PRE-CHORUS
     F#       D#         B flat        F#       D#         B flat
G|-----------------|----------------|----------------|----------------|
D|-----------------|----------------|----------------|----------------|
A|---------6-6-6-6-|----------------|--------6-6-6-6-|----------------| 
E|-2-2-2-2---------|6-6-6-6-6-6-6-6-|2-2-2-2---------|6-6-6-6-6-6-6-6-|
     F#       D#     B flat    F#          D#                                                            
G|-----------------|----------------|--------|
D|-----------------|----------------|--------|
A|---------6-6-6-6-|----------------|------6-| 
E|-2-2-2-2---------|6-6-6-6-2-2-2-2-|2-2-2---|

CHORUS

   B flat     F#           D#
G|-----------------|----------------|
D|-----------------|----------------|
A|-----------------|6-6-6-6-6-6-6-6-| X4
E|-6-6-6-6-2-2-2-2-|----------------|

SOLO
      B flat           C#                D#                F           
G|--------------|----------------|----------------|----------------|
D|--------------|----------------|----------------|----------------|
A|--------------|-4-4-4-4-4-4-4-4|-6-6-6-6-6-6-6-6|-8-8-8-8-8-8-8-8|
E|-6-6-6-6-6-6-6|----------------|----------------|----------------|
   B flat (oct.)     C# (oct.)        D# (oct.)          F (octave)
G|--------------|-6-6-6-6-6-6-6-6|-8-8-8-8-8-8-8-8|-10-10-10-10-10-10-10-10|
D|-8-8-8-8-8-8-8|----------------|----------------|------------------------|
A|--------------|----------------|----------------|------------------------|
E|--------------|----------------|----------------|------------------------|
   F#>E
G|-11\0-|
D|------|
A|------|
E|------|
    sl.
PRE-CHORUS
     F#       D#         B flat        F#       D#         B flat
G|-----------------|----------------|----------------|----------------|
D|-----------------|----------------|----------------|----------------|
A|---------6-6-6-6-|----------------|--------6-6-6-6-|----------------| 
E|-2-2-2-2---------|6-6-6-6-6-6-6-6-|2-2-2-2---------|6-6-6-6-6-6-6-6-|
     F#       D#     B flat    F#          D#                                                            
G|-----------------|----------------|--------|
D|-----------------|----------------|--------|
A|---------6-6-6-6-|----------------|------6-| 
E|-2-2-2-2---------|6-6-6-6-2-2-2-2-|2-2-2---|

FILL
     E>Bb
G|--------|
D|--------|
A|--------|
E|--12\6--|

END

                 B flat
G|-----------------|----------------|
D|-----------------|----------------|
A|-----------------|----------------| X4
E|-6-6-6-6-6-6-6-4h|6-6-6-6-6-6-6-4h|
Добавлено: 05.04.2012
Другие материалы по этой песне:
  • Аккорды и текст

Страница создана 05.04.2012
http://primanota.ru/bullets-and-octane/bad-things-to-bad-people-chords.htm
Привет, Гость.
Предлагаем пройти революционный курс по гитаре.
Подарок от PrimaNota.Ru, забирай!