PrimaNota.ru - самый крупный в мире бесплатный архив песенных текстов, аккордов, табулатур и нот


Bullet For My Valentine - Witchcraft - таба, видео

Регистрация Запомнить меня
Войти через:  Facebook Google Twitter Vk Yandex Mail.ru

Bullet For My Valentine - Witchcraft - таба, видео

Печатать
Просмотров: 1068
Witchcraft By Bullet For My Valentine


Matt Guitar
Turning : Drop D


                       
     E                                     E  E  E  E  E  E  E   
|-------------------------------------------------------------|
|-------------------------------------------1-----------4-----|
|----------------------------------------------1-----------5--|
|----------------------------------------------------6--------|
|----------------------------------------3--------4-----------|
|--3----------------------------------------------------------|


  E  E  E  E  E  E  E  E     E  E  E  E  E  E  E  E   
--------------------------|--------------------------|
--------4-----------1-----|--------1-----------4-----|
-----------3-----------3--|-----------1-----------5--|
-----6-----------3--------|-----------------6--------|
--6-----------1-----------|-----3--------4-----------|
--------------------------|--3-----------------------|


  E  E  E  E  E  E  E  E     E  E  E  E  E  E  E  E   
--------------------------|--------------------------|
--------4-----------1-----|--------1-----------4-----|
-----------3-----------3--|-----------1-----------5--|
-----6-----------3--------|-----------------6--------|
--6-----------1-----------|-----3--------4-----------|
--------------------------|--3-----------------------|


  E  E  E  E  E  E  E  E     E  E  E  E  E  E  E  E   
--------------------------|--------------------------|
--------4-----------1-----|--------1-----------4-----|
-----------3-----------3--|-----------1-----------5--|
-----6-----------3--------|-----------------6--------|
--6-----------1-----------|-----3--------4-----------|
--------------------------|--3-----------------------|


  E  E  E  E  E  E  E  E     E  E  E  E  E  E  E  E   
--------------------------|--------------------------|
--------4-----------1-----|--------4-----------4-----|
-----------3-----------3--|-----1-----1-----1-----1--|
-----6-----------3--------|--3-----------3-----------|
--6-----------1-----------|--------------------------|
--------------------------|--------------------------|


  E  E  E  E  E  E  E  E     E  E  E  E  E  E  E  E   
--------------------------|--------------------------|
--------4-----------4-----|--------1-----------1-----|
-----3-----3-----3-----3--|-----1-----1-----1-----1--|
--1-----------1-----------|--1-----------1-----------|
--------------------------|--------------------------|
--------------------------|--------------------------|


  E  E  E  E  E  E  E  E     E  E  E  E  E  E  E  E   
--------------------------|--------------------------|
--------4-----------4-----|--------4-----------4-----|
-----3-----3-----3-----3--|-----1-----1-----1-----1--|
--1-----------1-----------|--3-----------3-----------|
--------------------------|--------------------------|
--------------------------|--------------------------|


                                                        ^                  
  E  E  E  E  E  E  E  E     E  E  E  E  E  E  E  E     H        H         
--------------------------|--------------------------|--------------------|
--------4-----------4-----|--------4-----------4-----|--------------------|
-----3-----3-----3-----3--|-----1-----1-----1-----1--|--------------------|
--1-----------1-----------|--1-----------1-----------|--1-----------------|
--------------------------|--------------------------|--------------------|
--------------------------|--------------------------|--------------------|


  S S S S S S S S S S S S S S S S    E  S E  E.  S S S S S S S S  
----------------------------------|------------------------------|
----------------------------------|-------4----------------------|
------------------6-6-6-6-6-6-6-6-|-----3----3---3-3-3-3-3-3-3-3-|
--3-3-3-3-3-3-3-3-6-6-6-6-6-6-6-6-|--1-----------3-3-3-3-3-3-3-3-|
--3-3-3-3-3-3-3-3-4-4-4-4-4-4-4-4-|--------------1-1-1-1-1-1-1-1-|
--3-3-3-3-3-3-3-3-----------------|------------------------------|


  S S S S S S S S S S S S S S S S    E  S E  E.  S S S S S S S S  
----------------------------------|------------------------------|
----------------------------------|-------4----------------------|
------------------6-6-6-6-6-6-6-6-|-----3----3---3-3-3-3-3-3-3-3-|
--3-3-3-3-3-3-3-3-6-6-6-6-6-6-6-6-|--1-----------3-3-3-3-3-3-3-3-|
--3-3-3-3-3-3-3-3-4-4-4-4-4-4-4-4-|--------------1-1-1-1-1-1-1-1-|
--3-3-3-3-3-3-3-3-----------------|------------------------------|


  S S S S S S S S S S S S S S S S    S S S S S S S S S S S S S S S S  
--1-1-1-1-1-1-1-1-4-4-4-4-4-4-4-4-|--3-3-3-3-3-3-3-3-1-1-1-1-1-1-1-1-|
--1-1-1-1-1-1-1-1-4-4-4-4-4-4-4-4-|--4-4-4-4-4-4-4-4-1-1-1-1-1-1-1-1-|
--1-1-1-1-1-1-1-1-----------------|----------------------------------|
----------------------------------|----------------------------------|
----------------------------------|----------------------------------|
----------------------------------|----------------------------------|


  S S S S S S S S S S S S S S S S    S S S S S S S S S S S S S S S S  
--1-1-1-1-1-1-1-1-4-4-4-4-4-4-4-4-|--3-3-3-3-3-3-3-3-1-1-1-1-1-1-1-1-|
--1-1-1-1-1-1-1-1-4-4-4-4-4-4-4-4-|--4-4-4-4-4-4-4-4-1-1-1-1-1-1-1-1-|
--1-1-1-1-1-1-1-1-----------------|----------------------------------|
----------------------------------|----------------------------------|
----------------------------------|----------------------------------|
----------------------------------|----------------------------------|


  E  S S S S S S E  E  Q        E  S S S S S S E  S S E  E    
-----------------------------|-------------------------------|
-----------------------------|-------------------------------|
-----------------------------|-----------------6--5---5------|
--3----3---3-3-3-3--5--6~----|--3----3-5-3---3------8----6~--|
--3----3---3-3-3-3-----------|--3----------6-----------------|
--3----3---3-3-3-3-----------|--3----------------------------|


  E  S S S S S S E  E  Q        S S S S S S S S S S S S S S S S  
-----------------------------|----------------------------------|
-----------------------------|----------------------------------|
-----------------------------|----------------------------------|
--3----3-5-3---3-3--5--6~----|--3-3-3-3-3-3-3-3-1-1-1-1-1-1-1-1-|
--3----------6---3-----------|--3-3-3-3-3-3-3-3-1-1-1-1-1-1-1-1-|
--3--------------3-----------|--3-3-3-3-3-3-3-3-1-1-1-1-1-1-1-1-|


  E  S S S S S S E  E  Q        E  S S S S S S E  S S E  E    
-----------------------------|-------------------------------|
-----------------------------|-------------------------------|
-----------------------------|-----------------6--5---5------|
--3----3---3-3-3-3--5--6~----|--3----3-5-3---3------8----6~--|
--3----3---3-3-3-3-----------|--3----------6-----------------|
--3----3---3-3-3-3-----------|--3----------------------------|


  E  S S S S S S E  E  Q        S S S S S S S S S S S S S S S S  
-----------------------------|----------------------------------|
-----------------------------|----------------------------------|
-----------------------------|------------------6-6-6-----------|
--3----3-5-3---3-3--5--6~----|--3-3-3-3-3-3-3-3-6-6-6-1-1-1-1-1-|
--3----------6---3-----------|--3-3-3-3-3-3-3-3-4-4-4-1-1-1-1-1-|
--3--------------3-----------|--3-3-3-3-3-3-3-3-------1-1-1-1-1-|


  W                   W                   W                   W                 
-------------------|-------------------|-------------------|-------------------|
-------------------|-------------------|-------------------|-------------------|
-------------------|-------------------|-------------------|-------------------|
-------------------|-------------------|-------------------|-------------------|
-------------------|-------------------|-------------------|-------------------|
-------------------|-------------------|-------------------|-------------------|


   E  E  E  E   E  E  E  E      E  E  E  E   E  E  E  E   
---------8------------8-----|---------8------------8-----|
------9-----9------9-----9--|------9-----9------9-----9--|
--10-----------10-----------|--10-----------10-----------|
----------------------------|----------------------------|
----------------------------|----------------------------|
----------------------------|----------------------------|


   E  E  E  E   E  E  E  E      E  E  E  E  E  E  E  E   
---------8------------8-----|---------8-----------------|
------9-----9------9-----9--|------9-----9--------------|
--10-----------10-----------|--10-----------------------|
----------------------------|---------------------------|
----------------------------|---------------------------|
----------------------------|---------------------------|


  S S S S S S S S S S S S S S S S    S S S S S S S S S S S S S S S S  
--1-1-1-1-1-1-1-1-4-4-4-4-4-4-4-4-|--3-3-3-3-3-3-3-3-1-1-1-1-1-1-1-1-|
--1-1-1-1-1-1-1-1-4-4-4-4-4-4-4-4-|--4-4-4-4-4-4-4-4-1-1-1-1-1-1-1-1-|
--1-1-1-1-1-1-1-1-----------------|----------------------------------|
----------------------------------|----------------------------------|
----------------------------------|----------------------------------|
----------------------------------|----------------------------------|


  S S S S S S S S S S S S S S S S    S S S S S S S S S S S S S S S S  
--1-1-1-1-1-1-1-1-4-4-4-4-4-4-4-4-|--3-3-3-3-3-3-3-3-1-1-1-1-1-1-1-1-|
--1-1-1-1-1-1-1-1-4-4-4-4-4-4-4-4-|--4-4-4-4-4-4-4-4-1-1-1-1-1-1-1-1-|
--1-1-1-1-1-1-1-1-----------------|----------------------------------|
----------------------------------|----------------------------------|
----------------------------------|----------------------------------|
----------------------------------|----------------------------------|


  E  S S S S S S E  E  Q        E  S S S S S S E  S S E  E    
-----------------------------|-------------------------------|
-----------------------------|-------------------------------|
-----------------------------|-----------------6--5---5------|
--3----3---3-3-3-3--5--6~----|--3----3-5-3---3------8----6~--|
--3----3---3-3-3-3-----------|--3----------6-----------------|
--3----3---3-3-3-3-----------|--3----------------------------|


  E  S S S S S S E  E  Q        S S S S S S S S S S S S S S S S  
-----------------------------|----------------------------------|
-----------------------------|----------------------------------|
-----------------------------|----------------------------------|
--3----3-5-3---3-3--5--6~----|--3-3-3-3-3-3-3-3-1-1-1-1-1-1-1-1-|
--3----------6---3-----------|--3-3-3-3-3-3-3-3-1-1-1-1-1-1-1-1-|
--3--------------3-----------|--3-3-3-3-3-3-3-3-1-1-1-1-1-1-1-1-|


  E  S S S S S S E  E  Q        E  S S S S S S E  S S E  E    
-----------------------------|-------------------------------|
-----------------------------|-------------------------------|
-----------------------------|-----------------6--5---5------|
--3----3---3-3-3-3--5--6~----|--3----3-5-3---3------8----6~--|
--3----3---3-3-3-3-----------|--3----------6-----------------|
--3----3---3-3-3-3-----------|--3----------------------------|


  E  S S S S S S E  E  Q        S S S S S S S S S S S S S S S S  
-----------------------------|----------------------------------|
-----------------------------|----------------------------------|
-----------------------------|------------------6-6-6-----------|
--3----3-5-3---3-3--5--6~----|--3-3-3-3-3-3-3-3-6-6-6-1-1-1-1-1-|
--3----------6---3-----------|--3-3-3-3-3-3-3-3-4-4-4-1-1-1-1-1-|
--3--------------3-----------|--3-3-3-3-3-3-3-3-------1-1-1-1-1-|


  W                   W                   W                   W                 
-------------------|-------------------|-------------------|-------------------|
-------------------|-------------------|-------------------|-------------------|
-------------------|-------------------|-------------------|-------------------|
-------------------|-------------------|-------------------|-------------------|
-------------------|-------------------|-------------------|-------------------|
-------------------|-------------------|-------------------|-------------------|


   E  E  E  E   E  E  E  E      E  E  E  E   E  E  E  E   
---------8------------8-----|---------8------------8-----|
------9-----9------9-----9--|------9-----9------9-----9--|
--10-----------10-----------|--10-----------10-----------|
----------------------------|----------------------------|
----------------------------|----------------------------|
----------------------------|----------------------------|


   E  E  E  E   E  E  E  E      E  E  E  E  E  E  E  E   
---------8------------8-----|---------8-----------------|
------9-----9------9-----9--|------9-----9--------------|
--10-----------10-----------|--10-----------------------|
----------------------------|---------------------------|
----------------------------|---------------------------|
----------------------------|---------------------------|


  PM PM PM PM PM PM PM PM PM PM PM PM PM PM PM PM  
  S  S  S  S  S  S  S  S  S  S  S  S  S  S  S  S   
--------------------------------------------------|
--------------------------------------------------|
--------------------------6--6--6--6--6--6--6--6--|
--3--3--3--3--3--3--3--3--6--6--6--6--6--6--6--6--|
--3--3--3--3--3--3--3--3--4--4--4--4--4--4--4--4--|
--3--3--3--3--3--3--3--3--------------------------|


                    ^                                                   
    S S S S S S S S S S S S S S S S    S S S S S S S S S S S S S S S S  
------------------------------------|----------------------------------|
------------------------------------|----------------------------------|
--------------------3---------------|------------------6-6-6-6-6-6-6-6-|
--0g1-1-1-1-1-1-1-0-3---------------|--3-3-3-3-3-3-3-3-6-6-6-6-6-6-6-6-|
--0g1-1-1-1-1-1-1-0-1---------------|--3-3-3-3-3-3-3-3-4-4-4-4-4-4-4-4-|
--0g1-1-1-1-1-1-1-0-----------------|--3-3-3-3-3-3-3-3-----------------|


  S S S S S S S S S S S S S S S S    S S S S S S S S S S S S S S S S  
----------------------------------|--1-1-1-1-1-1-1-1-4-4-4-4-4-4-4-4-|
----------------------------------|--1-1-1-1-1-1-1-1-4-4-4-4-4-4-4-4-|
------------------3-3-3-3-3-3-3-3-|--1-1-1-1-1-1-1-1-----------------|
--1-1-1-1-1-1-1-1-3-3-3-3-3-3-3-3-|----------------------------------|
--1-1-1-1-1-1-1-1-1-1-1-1-1-1-1-1-|----------------------------------|
--1-1-1-1-1-1-1-1-----------------|----------------------------------|


  S S S S S S S S S S S S S S S S    S S S S S S S S S S S S S S S S  
--3-3-3-3-3-3-3-3-1-1-1-1-1-1-1-1-|--1-1-1-1-1-1-1-1-4-4-4-4-4-4-4-4-|
--4-4-4-4-4-4-4-4-1-1-1-1-1-1-1-1-|--1-1-1-1-1-1-1-1-4-4-4-4-4-4-4-4-|
----------------------------------|--1-1-1-1-1-1-1-1-----------------|
----------------------------------|----------------------------------|
----------------------------------|----------------------------------|
----------------------------------|----------------------------------|


  S S S S S S S S S S S S S S S S  
--3-3-3-3-3-3-3-3-1-1-1-1-1-1-1-1-|
--4-4-4-4-4-4-4-4-1-1-1-1-1-1-1-1-|
----------------------------------|
----------------------------------|
----------------------------------|
----------------------------------|


       PM PM PM PM PM PM PM PM PM PM PM PM                                      
  Q    X  X  X  X  X  X  X  X  X  X  X  X  X X X X X X X X X X X X X X X X X X X
----------------------x-----------------x---------------------------------------
-------------------x-----------------x------------------------------------------
----------------x-----------------x---------------------------------------------
--3----------x-----------------x------------------------------------------------
--3-------x-----------------x---------------------------------------------------
--3----x-----------------x------------------------------------------------------




Duration Legend
---------------
W - whole
H - half
Q - quarter
E - 8th
S - 16th
T - 32nd
X - 64th
. - note dotted
|-n-|  - n-tuplets


Tablature Legend
----------------
L - tied note
x - dead note
g - grace note
(n) - ghost note
> - accentuded note
NH - natural harmonic
AH - artificial harmonic
TH - tapped harmonic
SH - semi harmonic
PH - pitch harmonic
h - hammer on
p - pull off
b - bend
br - bendRelease
pb - preBend
pbr - preBendRelease
brb - bendReleaseBend
\n/ - tremolo bar dip
\n - tremolo bar dive
-/n - tremolo bar Release up
/n\ - tremolo bar inverted dip
/n - tremolo bar return
-\n - tremolo bar Release down
S - shift slide
s - legato slide
/ -  slide into from below or out of upwards
\ -  slide into from above or out of downwards
~ - vibrato
W - wide vibrato
tr - trill
TP - tremolo picking
T - tapping
S - slap
P - pop
< - fade in
^ - brush up
v - brush down
Добавлено: 14.03.2012
Другие материалы по этой песне:

Страница создана 14.03.2012
http://primanota.ru/bullet-for-my-valentine/witchcraft-chords.htm
Привет, Гость.
Предлагаем пройти революционный курс по гитаре.
Подарок от PrimaNota.Ru, забирай!