PrimaNota.ru - самый крупный в мире бесплатный архив песенных текстов, аккордов, табулатур и нот


Bullet For My Valentine - The End - текст песни, таба, бас-таба, видео

Регистрация Запомнить меня
Войти через:  Facebook Google Twitter Vk Yandex Mail.ru

Bullet For My Valentine - The End - текст песни, таба, бас-таба, видео

Печатать
Просмотров: 552
Авторы музыки: Bullet for My Valentine
Авторы текста: Matthew Tuck
Intro

-------------------|-----------------|
-------------------|-----------------|
------10---9----10-|------10---9---7-|  X3
--0-7----0---00----|-0-7----0---00---|
-------------------|-----------------|
-------------------|-----------------|

---------------------|-----------------|
---------------------|-----------------|
-----10---9----10/12~|------10---9---7-|
-0-7----0---00-------|-0-7----0---00---|
---------------------|-----------------|
---------------------|-----------------|

-------------------|
-------------------|
-----10p7----------|
----------0--------|
-------------------|
-------------------|

Verse (vocals begin on 2nd time round)
    your  hair  reminds  me  of
--------------------------------------|
--------------------------------------|
-----10---9----10---9----5-5-7-5~-----|
-0-0----0---00----0---00--------------|
--------------------------------------|
--------------------------------------|
a time when we once were
--------------------------------------|
--------------------------------------|
-----10---9----10---9----10/12~-------|
-0-0----0---00----0---0---------------|
--------------------------------------|
--------------------------------------|
  your fingernails that marked my
--------------------------------------|
--------------------------------------|
-----10---9----10---9----5-5-7-5~-----|
-0-0----0---00----0---00--------------|
--------------------------------------|
--------------------------------------|
back now rot in earth...etc
--------------------------|     ----------|
--------------------------|     ----------|
-----10---9-7-7-----------| X2  ---10p7---|   back to verse X1
-0-0----0---0-0-----------|     --------0-|
--------------------------|     ----------|
--------------------------|     ----------|

pre-chorus

guitar 1

---------------|
---------------|
---10~~-12-9~~-| X2
---------------|
---------------|
---------------|

guitar 2

---------------|
---10~~-11-8~~-|
---------------| X1 in harmony with 2nd guitar 1
---------------|
---------------|
---------------|

Slide down

chorus

guitar 1
-----------------------------------------------------|
-----------------------------------------------------|
--10-X??-(work it out)-9-X??--12-X??--17-X??--19-X??-|
-----------------------------------------------------|
-----------------------------------------------------|
-----------------------------------------------------|

guitar 2

-----------------------------------------------------|
--------------------------------------10??--15-X??---|
-----------------------------------------------------|
-----------------------------------------------------|
-----------------------------------------------------|
-----------------------------------------------------|

slide down and then C|--4rb~---

verse X2

NO RETURN!
---------------|
---------------|
---------------|
000000000------|
000000000------|
000000000------|

Verse X2

pre-chorus

Chorus

bridge

-------------------|--------------------|-------------------|------------|
-------------------|--------------------|-------------------|------------|
-------------------|--------------------|-------------------|------------|
-----7------7----5-|------7------7----9-|------7------7----5|-----7------|
-----5------5----3-|------5------5----7-|------5------5----3|-----5------|
0000---0000---00---|-0000---0000---00---|-0000---0000---00--|0000---0000-|
....   ....   ..     ....   ....   ..     ....   ....   ..   ....   ....

|---------------|  1st time round  |------------------------------| 2nd
|---------------|                  |------------------------------| time
|---------------|                  |-10h12-9h10-14h15-12h14-10h12-| round
|15\\\\\\\\-----|  slide down      |------------------------------|
|15\\\\\\\\-----|                  |------------------------------|
|15\\\\\\\\-----|                  |------------------------------|


----------------------------------------------------------------|
----------------------------------------------------------------|
----------------------------------------------------------------|
-00000000000000000000000000000000000000000000000000000----------|
----------------------------------------------------------------|
----------------------------------------------------------------|
guitar 1
----------------------------------------------------------------|
----------------------------------------------------------------|
----------------------------------------------------------------|
0000-0000--0000-0000--XXXX-XXXX---------------------------------| X4
0000-0000--0000-0000--XXXX-XXXX---------------------------------|
0000-0000--0000-0000--XXXX-XXXX---------------------------------|

Guitar 2

----------------------------------------------------------------|
----------------------------------------------------------------|
----------------------------------------------------------------|
----------------------7-0-5-0-8-0-7-----------------------------| X4
----------------------------------------------------------------|
0000-0000--0000-0000--------------------------------------------|

-----------------------|
-----------------------|
-----------------------|
0~~~~~~~~--------------|
0~~~~~~~~--------------|
0~~~~~~~~--------------|

intro

and somewhere added in it is

---------------------|
---------------------|
------10---9----10p9-|
--0-7----0---00------|
---------------------|
---------------------|
Добавлено: 27.03.2012
Другие материалы по этой песне:

Страница создана 04.03.2012
http://primanota.ru/bullet-for-my-valentine/the-end-chords.htm
Привет, Гость.
Предлагаем пройти революционный курс по гитаре.
Подарок от PrimaNota.Ru, забирай!