PrimaNota.ru - самый крупный в мире бесплатный архив песенных текстов, аккордов, табулатур и нот


Bullet For My Valentine - Tears Dont Fall Part 2 - таба, видео

Регистрация Запомнить меня
Войти через:  Facebook Google Twitter Vk Yandex Mail.ru

Bullet For My Valentine - Tears Dont Fall Part 2 - таба, видео

Печатать
Просмотров: 782
HEYHOWUDO - TEARS DON'T FALL PART 2 TABS

http://www.youtube.com/watch?v=7EiiVTZ_uAI

CHECK OUT MY COVER IN THE LINK ABOVE...
FIRST ONE THAT WAS RELEASED AND AS YOU REQUESTED
HERE'S THE TAB.

TUNING: DROP C

INTRO:

PADGE:

 D|---------------------------------------------------------------------------|
 A|---------------------------------------------------------------------------|
 F|---------------------------------------------------------------------------|
 C|---------5H7-----7H9-----9H10--------------5H7-----7H9-----9H10------------|
 G|-0-0-0-O-----0-0-----0-0------0-0--0-0-0-O-----0-0-----0-0------0-0--------|
 C|---------------------------------------------------------------------------|
    . . . .     . .     . .      . .  . . . .     . .     . .      . . 
 D|---------------------------------------------------------------------------|
 A|---------------------------------------------------------------------------|
 F|--------------------------------------------------7P5-----9P5--------------|
 C|------------------------------------------9P7------------------------------|
 G|---------5H7------7P5-----3H5----------------------------------------------|
 C|-3-3-3-3-----3-3------3-3-----3-3-5-5-5-5-----5-5-----5-5-----5-5----------|
    . . . .     . .      . .     . . . . . .     . .     . .     . .
PADGE:

 D|---------------------------------------------------------------------------|
 A|---------------------------------------------------------------------------|
 F|--------------------------------------------------------77777S9999S555-----|
 C|-77777777777777777777777777777777-3333333333333333-5555--------------------|
 G|-77777777777777777777777777777777-3333333333333333-5555--------------------|
 C|-77777777777777777777777777777777-3333333333333333-5555--------------------|x2

MATT:

 D|--------------------------------------------------------------------------------|
 A|--------------------------------------------------------------------------------|
 F|--------------------------------------------------------------------------------|
 C|-77777777999910101010777777779999101010103333555577773333555599999S10101010S777-|
 G|-7777----------------7777----------------3333------------5555-------------------|
 C|-7777----------------7777----------------3333------------5555-------------------|x2

VERSE:

PADGE:
        THE BEGINNING OF THIS RIFF PLAYS AN EXTRA PART FOR THE TRANSITION
 D|---------------------------------------------------------------------------|
 A|---------------------------------------------------------------------------|
 F|---------------------------------------------------------------------------|
 C|---------5H7-----7H9-----9H10--------------5H7-----7H9-----9H10------------|
 G|-0-0-0-O-----0-0-----0-0------0-0--0-0-0-O-----0-0-----0-0------0-0--------|
 C|---------------------------------------------------------------------------|
    . . . .     . .     . .      . .  . . . .     . .     . .      . .
 D|---------------------------------------------------------------------------|
 A|---------------------------------------------------------------------------|
 F|--------------------------------------------------7P5-----9P5--------------|
 C|------------------------------------------9P7------------------------------|
 G|---------5H7------7P5-----3H5----------------------------------------------|
 C|-3-3-3-3-----3-3------3-3-----3-3-5-5-5-5-----5-5-----5-5-----5-5----------|X2
    . . . .     . .      . .     . . . . . .     . .     . .     . . 
MATT:
                                ON SECOND TIME
 D|---------------------------------------------------------------------------|
 A|---------------------------------------------------------------------------|
 F|-2-2--2-2-2--2-2-2--2-2-2--2-2-2--2-2-2--2-2-2--2-2-2----------------------|
 C|-2-2--2-2-2--2-2-2--2-2-2--2-2-2--2-2-2--2-2-2--2-2-2-3-3-3--3-3-3--3-3-3--|
 G|-0-0--0-0-0--0-0-0--0-0-0--0-0-0--0-0-0--0-0-0--0-0-0-3-3-3--3-3-3--3-3-3--|
 C|------------------------------------------------------3-3-3--3-3-3--3-3-3--|
    . .  . . .  . . .  . . .  . . .  . . .  . . .  . . . . . .  . . .  . . . 
 D|---------------------------------------------------------------------------|
 A|---------------------------------------------------------------------------|
 F|---------------------------------------------------------------------------|
 C|-3-3-3--5-5-5--5-5-5--5-5-5--5-5-5-----------------------------------------|
 G|-3-3-3--5-5-5--5-5-5--5-5-5--5-5-5-----------------------------------------|
 C|-3-3-3--5-5-5--5-5-5--5-5-5--5-5-5-----------------------------------------|
    . . .  . . .  . . .  . . .  . . .
PRECHORUS:

PADGE:

 D|---------------------------------------------------------------------------|
 A|---------------------------------------------------------------------------|
 F|--------12~-----------------------12~--------------------------------------|
 C|-S12-14-----14-12-14-S9~---S12-14-----14-12S14S12~---12H14-12~-------------|
 G|---------------------------------------------------------------------------|
 C|---------------------------------------------------------------------------|

MATT:

 D|---------------------------------------------------------------------------|
 A|---------------------------------------------------------------------------|
 F|-222222-222-222222-222-222222-222-222222-222-------------------------------|
 C|-222222-222-222222-222-222222-222-222222-222-333333-333-333333-333-555555--|
 G|-000000-000-000000-000-000000-000-000000-000-333333-333-333333-333-555555--|
 C|---------------------------------------------333333-333-333333-333-555555--|
    ...... ... ...... ... ...... ... ...... ... ...... ... ...... ... ......
 D|---------------------------------------------------------------------------|
 A|---------------------------------------------------------------------------|
 F|---------------------------------------------------------------------------|
 C|-555-555555-5----CAN HARMONISE THE 12-14-15 IF YOU CHOOSE------------------|
 G|-555-555555-5--------------------------------------------------------------|
 C|-555-555555-5--------------------------------------------------------------|
    ... ...... .
CHORUS:

PADGE:

 D|---------------------------------------------------------------------------|
 A|---------------------------------------------------------------------------|
 F|--------------------------------------------------------77777S9999S555-----|
 C|-77777777777777777777777777777777-3333333333333333-5555--------------------|
 G|-77777777777777777777777777777777-3333333333333333-5555--------------------|
 C|-77777777777777777777777777777777-3333333333333333-5555--------------------|x2

MATT:

 D|--------------------------------------------------------------------------------|
 A|--------------------------------------------------------------------------------|
 F|--------------------------------------------------------------------------------|
 C|-77777777999910101010777777779999101010103333555577773333555599999S10101010S777-|
 G|-7777----------------7777----------------3333------------5555-------------------|
 C|-7777----------------7777----------------3333------------5555-------------------|x2

VERSE:

PADGE:
        THE BEGINNING OF THIS RIFF PLAYS AN EXTRA PART FOR THE TRANSITION
 D|---------------------------------------------------------------------------|
 A|---------------------------------------------------------------------------|
 F|---------------------------------------------------------------------------|
 C|---------5H7-----7H9-----9H10--------------5H7-----7H9-----9H10------------|
 G|-0-0-0-O-----0-0-----0-0------0-0--0-0-0-O-----0-0-----0-0------0-0--------|
 C|---------------------------------------------------------------------------|
    . . . .     . .     . .      . .  . . . .     . .     . .      . .
 D|---------------------------------------------------------------------------|
 A|---------------------------------------------------------------------------|
 F|--------------------------------------------------7P5-----9P5--------------|
 C|------------------------------------------9P7------------------------------|
 G|---------5H7------7P5-----3H5----------------------------------------------|
 C|-3-3-3-3-----3-3------3-3-----3-3-5-5-5-5-----5-5-----5-5-----5-5----------|X2
    . . . .     . .      . .     . . . . . .     . .     . .     . .
MATT:
                                ON SECOND TIME
 D|---------------------------------------------------------------------------|
 A|---------------------------------------------------------------------------|
 F|-2-2--2-2-2--2-2-2--2-2-2--2-2-2--2-2-2--2-2-2--2-2-2----------------------|
 C|-2-2--2-2-2--2-2-2--2-2-2--2-2-2--2-2-2--2-2-2--2-2-2-3-3-3--3-3-3--3-3-3--|
 G|-0-0--0-0-0--0-0-0--0-0-0--0-0-0--0-0-0--0-0-0--0-0-0-3-3-3--3-3-3--3-3-3--|
 C|------------------------------------------------------3-3-3--3-3-3--3-3-3--|
    . .  . . .  . . .  . . .  . . .  . . .  . . .  . . . . . .  . . .  . . .
 D|---------------------------------------------------------------------------|
 A|---------------------------------------------------------------------------|
 F|---------------------------------------------------------------------------|
 C|-3-3-3--5-5-5--5-5-5--5-5-5--5-5-5-----------------------------------------|
 G|-3-3-3--5-5-5--5-5-5--5-5-5--5-5-5-----------------------------------------|
 C|-3-3-3--5-5-5--5-5-5--5-5-5--5-5-5-----------------------------------------|
    . . .  . . .  . . .  . . .  . . .
PRECHORUS:

PADGE:

 D|---------------------------------------------------------------------------|
 A|---------------------------------------------------------------------------|
 F|--------12~-----------------------12~--------------------------------------|
 C|-S12-14-----14-12-14-S9~---S12-14-----14-12S14S12~---12H14-12~-------------|
 G|---------------------------------------------------------------------------|
 C|---------------------------------------------------------------------------|

MATT:

 D|---------------------------------------------------------------------------|
 A|---------------------------------------------------------------------------|
 F|-222222-222-222222-222-222222-222-222222-222-------------------------------|
 C|-222222-222-222222-222-222222-222-222222-222-333333-333-333333-333-555555--|
 G|-000000-000-000000-000-000000-000-000000-000-333333-333-333333-333-555555--|
 C|---------------------------------------------333333-333-333333-333-555555--|
    ...... ... ...... ... ...... ... ...... ... ...... ... ...... ... ......
 D|---------------------------------------------------------------------------|
 A|---------------------------------------------------------------------------|
 F|---------------------------------------------------------------------------|
 C|-555-555555-5--------------------------------------------------------------|
 G|-555-555555-5--------------------------------------------------------------|
 C|-555-555555-5--------------------------------------------------------------|
    ... ...... .
CHORUS:

PADGE:

 D|---------------------------------------------------------------------------|
 A|---------------------------------------------------------------------------|
 F|--------------------------------------------------------77777S9999S555-----|
 C|-77777777777777777777777777777777-3333333333333333-5555--------------------|
 G|-77777777777777777777777777777777-3333333333333333-5555--------------------|
 C|-77777777777777777777777777777777-3333333333333333-5555--------------------|x2

MATT:

 D|--------------------------------------------------------------------------------|
 A|--------------------------------------------------------------------------------|
 F|--------------------------------------------------------------------------------|
 C|-77777777999910101010777777779999101010103333555577773333555599999S10101010S777-|
 G|-7777----------------7777----------------3333------------5555-------------------|
 C|-7777----------------7777----------------3333------------5555-------------------|x2

PRESOLO:

PADGE:
YOU GET IT, JUST LISTEN TO WHEN MATT ALSO TREMOLO PICKS AND WHEN THE POWER CHORD IS
 D|---------------------------------------------------------------------------|
 A|---------------------------------------------------------------------------|
 F|-2---------------------------------------------------2---------------------|
 C|-2---------------------------------------------------2---------------------|
 G|-00000000000000000000000000000000000000000000000000000---------------------|
 C|---------------------------------------------------------------------------|
     ...................................................
MATT:

 D|---------------------------------------------------------------------------|
 A|---------------------------------------------------------------------------|
 F|-2----------------------------------------------------2--------------------|
 C|-2----------------------------------------------------2--------------------|
 G|-0----------------------------------------------------0--------------------|
 C|---------------------------------------------------------------------------|

SOLO:

PADGE:

 D|-5-7-8-7-5-7-8-7-8-7-5-7-8-5-8-5-7-8-10-8-7-8-10-8-10-8-7-8-10-7-10-7-8-10-|
 A|---------------------------------------------------------------------------|
 F|---------------------------------------------------------------------------|
 C|---------------------------------------------------------------------------|
 G|---------------------------------------------------------------------------|
 C|---------------------------------------------------------------------------|

 D|-12-10-8-10-12-10-8-10-12-14-12-10-12-14-12-10-12-14-15-14-12-14-15-17-15--|
 A|---------------------------------------------------------------------------|
 F|---------------------------------------------------------------------------|
 C|---------------------------------------------------------------------------|
 G|---------------------------------------------------------------------------|
 C|---------------------------------------------------------------------------|

 D|-14-15-17-15-14------------------------------------------------------------|
 A|----------------17-15-12-15-17-15-12---------------------------------------|
 F|-------------------------------------16-14-12-14~--------------------------|
 C|---------------------------------------------------------------------------|
 G|---------------------------------------------------------------------------|
 C|---------------------------------------------------------------------------|

 D|---------------------------------------------------------------------------|
 A|-----------12----12-13-------13S15-13-12-13-12-----------------------------|
 F|-S14-12-14----14-------14-12-------------------12--------------------------|
 C|--------------------------------------------------12-----------------------|
 G|-----------------------------------------------------15-14-12~-------------|
 C|---------------------------------------------------------------------------|

 D|---------------------------------------------------------------------------|
 A|---------------------------------------------------------------------------|
 F|-------------------12b13-------------------14b15-------------------15b16---|
 C|----------12h14h16----------------12h14h16----------------12h14h16---------|
 G|-12h14h15----------------12h14h15----------------12h14h15------------------|
 C|---------------------------------------------------------------------------|

 D|-19-17-15------------------------------------------------------------------|
 A|----------19-17-15----------------15-17-19-17-15---------------------------|
 F|-------------------17-16-14-16-17----------------s17~-s16-141414141414-----|
 C|---------------------------------------------------------------------------|
 G|---------------------------------------------------------------------------|
 C|---------------------------------------------------------------------------|

 D|---------------------------------------------------------------------------|
 A|-19191919------------------------------------------------------------------|
 F|----------14141414-121212121212-10101010-8888-s17~-sS16-141414141414-------|
 C|---------------------------------------------------------------------------|
 G|---------------------------------------------------------------------------|
 C|---------------------------------------------------------------------------|

 D|----------------------------------------------------------------14---------|
 A|-19191919----------------------------------------------13-15-17----17-15---|
 F|----------14141414-121212121212-10101010-8888-12-14-16---------------------|
 C|---------------------------------------------------------------------------|
 G|---------------------------------------------------------------------------|
 C|---------------------------------------------------------------------------|

 D|----------------------------15----------------------------------17---------|
 A|-13-15-17----------15-17-19----19-17-15-17-19----------17-19-20----20-19---|
 F|----------14-16-17----------------------------15-17-19---------------------|
 C|---------------------------------------------------------------------------|
 G|---------------------------------------------------------------------------|
 C|---------------------------------------------------------------------------|

 D|---------------------------------------------------------------------------|
 A|-17-19-20-19-17-15---------------------------------------------------------|
 F|-------------------17-16-14------------------------------------------------|
 C|----------------------------17-16-14---------------------------------------|
 G|-------------------------------------17-15-14-12~--------------------------|
 C|---------------------------------------------------------------------------|

VERSE:

PADGE:
        
 D|---------------------------------------------------------------------------|
 A|---------------------------------------------------------------------------|
 F|---------------------------------------------------------------------------|
 C|---------5H7-----7H9-----9H10--------------5H7-----7H9-----9H10------------|
 G|-0-0-0-O-----0-0-----0-0------0-0--0-0-0-O-----0-0-----0-0------0-0--------|
 C|---------------------------------------------------------------------------|
    . . . .     . .     . .      . .  . . . .     . .     . .      . .
 D|---------------------------------------------------------------------------|
 A|---------------------------------------------------------------------------|
 F|--------------------------------------------------7P5-----9P5--------------|
 C|------------------------------------------9P7------------------------------|
 G|---------5H7------7P5-----3H5----------------------------------------------|
 C|-3-3-3-3-----3-3------3-3-----3-3-5-5-5-5-----5-5-----5-5-----5-5----------|
    . . . .     . .      . .     . . . . . .     . .     . .     . .
MATT:
                                
 D|---------------------------------------------------------------------------|
 A|---------------------------------------------------------------------------|
 F|-2-2--2-2-2--2-2-2--2-2-2--2-2-2--2-2-2--2-2-2--2-2-2----------------------|
 C|-2-2--2-2-2--2-2-2--2-2-2--2-2-2--2-2-2--2-2-2--2-2-2-3-3-3--3-3-3--3-3-3--|
 G|-0-0--0-0-0--0-0-0--0-0-0--0-0-0--0-0-0--0-0-0--0-0-0-3-3-3--3-3-3--3-3-3--|
 C|------------------------------------------------------3-3-3--3-3-3--3-3-3--|
    . .  . . .  . . .  . . .  . . .  . . .  . . .  . . . . . .  . . .  . . . 
 D|---------------------------------------------------------------------------|
 A|---------------------------------------------------------------------------|
 F|---------------------------------------------------------------------------|
 C|-3-3-3--5-5-5--5-5-5--5-5-5--5-5-5-----------------------------------------|
 G|-3-3-3--5-5-5--5-5-5--5-5-5--5-5-5-----------------------------------------|
 C|-3-3-3--5-5-5--5-5-5--5-5-5--5-5-5-----------------------------------------|
    . . .  . . .  . . .  . . .  . . . 
PRECHORUS:

PADGE:

 D|---------------------------------------------------------------------------|
 A|---------------------------------------------------------------------------|
 F|--------12~-----------------------12~--------------------------------------|
 C|-S12-14-----14-12-14-S9~---S12-14-----14-12S14S12~---12H14-12~-------------|
 G|---------------------------------------------------------------------------|
 C|---------------------------------------------------------------------------|

MATT:

 D|---------------------------------------------------------------------------|
 A|---------------------------------------------------------------------------|
 F|-222222-222-222222-222-222222-222-222222-222-------------------------------|
 C|-222222-222-222222-222-222222-222-222222-222-333333-333-333333-333-555555--|
 G|-000000-000-000000-000-000000-000-000000-000-333333-333-333333-333-555555--|
 C|---------------------------------------------333333-333-333333-333-555555--|
    ...... ... ...... ... ...... ... ...... ... ...... ... ...... ... ......
 D|---------------------------------------------------------------------------|
 A|---------------------------------------------------------------------------|
 F|---------------------------------------------------------------------------|
 C|-555-555555----------------------------------------------------------------|
 G|-555-555555----------------------------------------------------------------|
 C|-555-555555----------------------------------------------------------------|
    ... ......
CHORUS:

PADGE:

 D|---------------------------------------------------------------------------|
 A|---------------------------------------------------------------------------|
 F|--------------------------------------------------------77777S9999S555-----|
 C|-77777777777777777777777777777777-3333333333333333-5555--------------------|
 G|-77777777777777777777777777777777-3333333333333333-5555--------------------|
 C|-77777777777777777777777777777777-3333333333333333-5555--------------------|x4

MATT:

 D|--------------------------------------------------------------------------------|
 A|--------------------------------------------------------------------------------|
 F|--------------------------------------------------------------------------------|
 C|-77777777999910101010777777779999101010103333555577773333555599999S10101010S777-|
 G|-7777----------------7777----------------3333------------5555-------------------|
 C|-7777----------------7777----------------3333------------5555-------------------|x4

LEAD RIFF:

PADGE:
                                ON THIRD TIME
 D|---------------------------------------------------------------------------|
 A|---------------------------------------------------------------------------|
 F|--------12~-----------------------12~----12S14S12--------------------------|
 C|-S12-14-----14-12-14-S9~---S12-14-----14----------12~----------------------|
 G|---------------------------------------------------------------------------|
 C|---------------------------------------------------------------------------|

FINISH ON THE A POWER CHORD

http://www.youtube.com/watch?v=7EiiVTZ_uAI

BE SURE TO CHECK OUT MY COVER
Добавлено: 12.08.2013
Другие материалы по этой песне:

Страница создана 18.06.2013
http://primanota.ru/bullet-for-my-valentine/tears-dont-fall-part-2-chords.htm
Привет, Гость.
Предлагаем пройти революционный курс по гитаре.
Подарок от PrimaNota.Ru, забирай!