PrimaNota.ru - самый крупный в мире бесплатный архив песенных текстов, аккордов, табулатур и нот


Bullet For My Valentine - My Fist Your Mouth Her Scars Lead - таба, видео

Регистрация Запомнить меня
Войти через:  Facebook Google Twitter Vk Yandex Mail.ru

Bullet For My Valentine - My Fist Your Mouth Her Scars Lead - таба, видео

Печатать
Просмотров: 284
Уроки эстрадного вокала в Санкт-Петербурге
Lead Guitar Tab
Intro
PM  --   -   - ----   -   - ----   -   ---
D|--------------------------------------------------------|   
A|--------------------------------------------------------|   b=bend PM=palm mute 
F|--------------------------------------------------------|   pH-pinch harmonic
C|-----------------------------------------10-8-7----7----|
G|-----8---8--------7---7--------8---8------------10---8b-|
C|--00---0---0-0000---0---0-0000---0---000----------------|

PM  --   -   - ----   -   - ----   -   ---
D|---------------------------------------------------------|   
A|---------------------------------------------------------|   
F|---------------------------------------------------------|   
C|-----------------------------------------10-8-7----7-----|
G|-----8---8--------7---7--------8---8------------10---8pH-|
C|--00---0---0-0000---0---0-0000---0---000-----------------|

PM  --   -   - ----   -   - ----   -   ---
D|--------------------------------------------------------|   
A|--------------------------------------------------------|   
F|--------------------------------------------------------|   
C|-----------------------------------------10-8-7----7----|
G|-----8---8--------7---7--------8---8------------10---8b-|
C|--00---0---0-0000---0---0-0000---0---000----------------|

PM  --   -   - ----   -   - ----   -   --- -- - - -- - -
D|--------------------------------------------------------|   
A|--------------------------------------------------------|   
F|--------------------------------------------------------|   
C|-----------------------------------------10-8-7----7----|
G|-----8---8--------7---7--------8---8------------10---8b-|
C|--00---0---0-0000---0---0-0000---0---000----------------|

PM  --   -   - ----   -   - ----   -   ---
D|--------------------------------------------------------|   
A|--------------------------------------------------------|   
F|--------------------------------------------------------|   
C|-----------------------------------------10-8-7----7----|
G|-----8---8--------7---7--------8---8------------10---8b-|
C|--00---0---0-0000---0---0-0000---0---000----------------|

PM  --   -   - ----   -   - ----   -   ---
D|---------------------------------------------------------|   
A|---------------------------------------------------------|   
F|---------------------------------------------------------|   
C|-----------------------------------------10-8-7----7-----|
G|-----8---8--------7---7--------8---8------------10---8pH-|
C|--00---0---0-0000---0---0-0000---0---000-----------------|

PM  --   -   - ----   -   - ----   -   ---
D|--------------------------------------------------------|   
A|--------------------------------------------------------|   
F|--------------------------------------------------------|   
C|-----------------------------------------10-8-7----7----|
G|-----8---8--------7---7--------8---8------------10---8b-|
C|--00---0---0-0000---0---0-0000---0---000----------------|

PM  --   -   - ----   -   - ----   -   --- -- - - -- - -
D|--------------------------------------------------------|   
A|--------------------------------------------------------|   
F|--------------------------------------------------------|   
C|-----------------------------------------10-8-7----7----|
G|-----8---8--------7---7--------8---8------------10---8b-|
C|--00---0---0-0000---0---0-0000---0---000----------------|

Verse 1
Bleed when you thought you knew. Do you hear me shout?
Bleeding through my head, my heart, my eyes! (To come home)
What I'm thinking now when I take you out.
We can hold these thoughts I have of you till it comes!

PM   -------            -------            -------            
D|-----------------------------------------------------------------------|
A|-----------------------------------------------------------------------|
F|-----------------------------------------------------------------------|
C|-0-0000000-10-8-0-3-0-0000000-10-8-0-1-0-0000000-10-8-0-3-77-88-55-3-1-| x2
G|-0-0000000-10-8-0-3-0-0000000-10-8-0-1-0-0000000-10-8-0-3-55-66-33-3-1-|
C|-0-0000000-10-8-0-3-0-0000000-10-8-0-1-0-0000000-10-8-0-3----------3-1-|

Pre-Chorus
There's no more ways to tell you. I want to fuck you now.
With every ounce of anger. In turn we know you're going down.

D|--------------------------------------------------------------|
A|--------------------------------------------------------------|
F|--------------------------------------------------------------|
C|--------------------------------------------------------------| x2
G|---12tp10tp12tp13tp12tp10tp12tp---12tp10tp12tp---12tp10tp12tp-|
C|-0------------------------------8--------------7--------------|

Chorus 1
But now, it's over, I'm calmer.
Her crimson flowing down, like water, I saw her when she hit the ground.

PM  --   -   - ----   -   - ----   -   ---
D|--------------------------------------------------------|   
A|--------------------------------------------------------|   
F|--------------------------------------------------------|   
C|-----------------------------------------10-8-7----7----|
G|-----8---8--------7---7--------8---8------------10---8b-|
C|--00---0---0-0000---0---0-0000---0---000----------------|

PM  --   -   - ----   -   - ----   -   ---
D|---------------------------------------------------------|   
A|---------------------------------------------------------|   
F|---------------------------------------------------------|   
C|-----------------------------------------10-8-7----7-----|
G|-----8---8--------7---7--------8---8------------10---8pH-|
C|--00---0---0-0000---0---0-0000---0---000-----------------|

PM  --   -   - ----   -   - ----   -   ---
D|--------------------------------------------------------|   
A|--------------------------------------------------------|   
F|--------------------------------------------------------|   
C|-----------------------------------------10-8-7----7----|
G|-----8---8--------7---7--------8---8------------10---8b-|
C|--00---0---0-0000---0---0-0000---0---000----------------|

PM  --   -   - ----   -   - ----   -   --- -- - - -- - -
D|--------------------------------------------------------|   
A|--------------------------------------------------------|   
F|--------------------------------------------------------|   
C|-----------------------------------------10-8-7----7----|
G|-----8---8--------7---7--------8---8------------10---8b-|
C|--00---0---0-0000---0---0-0000---0---000----------------|

Verse 2
Bruise, when I tear you up. Have I gone too far?
What about my fist, your mouth, her scars? (To come home)
What I'm thinking now. When I stumble down.
We can never say that you are gone till it comes!

PM   -------            -------            -------            
D|-----------------------------------------------------------------------|
A|-----------------------------------------------------------------------|
F|-----------------------------------------------------------------------|
C|-0-0000000-10-8-0-3-0-0000000-10-8-0-1-0-0000000-10-8-0-3-77-88-55-3-1-| x2
G|-0-0000000-10-8-0-3-0-0000000-10-8-0-1-0-0000000-10-8-0-3-55-66-33-3-1-|
C|-0-0000000-10-8-0-3-0-0000000-10-8-0-1-0-0000000-10-8-0-3----------3-1-|

Pre-Chorus
There's no more ways to show you. I just can't take no more.
The thought of me inside you just makes me sick you're going down.

D|--------------------------------------------------------------|
A|--------------------------------------------------------------|
F|--------------------------------------------------------------|
C|--------------------------------------------------------------| x2
G|---12tp10tp12tp13tp12tp10tp12tp---12tp10tp12tp---12tp10tp12tp-|
C|-0------------------------------8--------------7--------------|

Chorus 2
But now, it's over, I'm calmer.
Her crimson flowing down, like water, I saw her as she hit the ground.

PM  --   -   - ----   -   - ----   -   ---
D|--------------------------------------------------------|   
A|--------------------------------------------------------|   
F|--------------------------------------------------------|   
C|-----------------------------------------10-8-7----7----|
G|-----8---8--------7---7--------8---8------------10---8b-|
C|--00---0---0-0000---0---0-0000---0---000----------------|

PM  --   -   - ----   -   - ----   -   ---
D|---------------------------------------------------------|   
A|---------------------------------------------------------|   
F|---------------------------------------------------------|   
C|-----------------------------------------10-8-7----7-----|
G|-----8---8--------7---7--------8---8------------10---8pH-|
C|--00---0---0-0000---0---0-0000---0---000-----------------|

PM  --   -   - ----   -   - ----   -   ---
D|--------------------------------------------------------|   
A|--------------------------------------------------------|   
F|--------------------------------------------------------|   
C|-----------------------------------------10-8-7----7----|
G|-----8---8--------7---7--------8---8------------10---8b-|
C|--00---0---0-0000---0---0-0000---0---000----------------|


PM  --   -   - ----   -   - ----   -   --- -- - - -- - -
D|--------------------------------------------------------|   
A|--------------------------------------------------------|   
F|--------------------------------------------------------|   
C|-----------------------------------------10-8-7----7----|
G|-----8---8--------7---7--------8---8------------10---8b-|
C|--00---0---0-0000---0---0-0000---0---000----------------|

Solo
                                                               PM -- -- -- -- -- -- --
D|-------------------------------------------------------------------------------------
A|-5h6-13p5h6-15p5h6-13p5h6-15-5h6-13p5h6-15p5h6-13p5h6-18-17--------------------------
F|----------------------------------------------------------------14-12----------------
C|----------------------------------------------------------------------15-14-15-10/12-
G|------------------------------------------------------------13/----------------------
C|------------------------------------------------------------13/----------------------

                                                               PM -- -- -- -- -- -- --
D|-------------------------------------------------------------------------------------|
A|-5h6-13p5h6-15p5h6-13p5h6-20-5h6-13p5h6-15p5h6-13p5h6-18-17--------------------------|
G|----------------------------------------------------------------14-12----------------|
C|----------------------------------------------------------------------15-14-15-10/12-|
G|------------------------------------------------------------13/----------------------|
C|------------------------------------------------------------13/----------------------|

Post-Solo
D|--------------------------------------------------------------|
A|--------------------------------------------------------------|
F|--------------------------------------------------------------|
C|--------------------------------------------------------------| 
G|---12tp10tp12tp13tp12tp10tp12tp---12tp10tp12tp---12tp10tp12tp-|
C|-0------------------------------8--------------7--------------|

D|--------------------------------------------------------------|
A|--------------------------------------------------------------|
F|--------------------------------------------------------------|
C|--------------------------------8----7------------------------| 
G|---12tp10tp12tp13tp12tp10tp12tp-8----7------------------------|
C|-0------------------------------8----7------------------------|

Verse 3
Hate! When you thought you knew. Do you hear me shout?
Bleeding through my head, my heart, my eyes. (To come home)
What I'm thinking now when I take you out.
We can hold these thoughts I have of you till it comes.

PM   -------            -------            -------            
D|-----------------------------------------------------------------------|
A|-----------------------------------------------------------------------|
F|-----------------------------------------------------------------------|
C|-0-0000000-10-8-0-3-0-0000000-10-8-0-1-0-0000000-10-8-0-3-77-88-55-3-1-| x2
G|-0-0000000-10-8-0-3-0-0000000-10-8-0-1-0-0000000-10-8-0-3-55-66-33-3-1-|
C|-0-0000000-10-8-0-3-0-0000000-10-8-0-1-0-0000000-10-8-0-3----------3-1-|

Pre-Chorus
There's no more ways to show you. I just can't take no more.
The thought of me inside you just makes me sick you're going down.

D|--------------------------------------------------------------|
A|--------------------------------------------------------------|
F|--------------------------------------------------------------|
C|--------------------------------------------------------------| 
G|---12tp10tp12tp13tp12tp10tp12tp---12tp10tp12tp---12tp10tp12tp-|
C|-0------------------------------8--------------7--------------|

D|--------------------------------------------------------------|
A|--------------------------------------------------------------|
F|--------------------------------------------------------------|
C|--------------------------------8----7------------------------| 
G|---12tp10tp12tp13tp12tp10tp12tp-8----7------------------------|
C|-0------------------------------8----7------------------------|

Pre-Chorus 2
There's no more ways to tell you. I want to fuck you now.
With every ounce of anger. In turn we know you're going down.

D|--------------------------------------------------------------|
A|--------------------------------------------------------------|
F|--------------------------------------------------------------|
C|--------------------------------------------------------------| x2 
G|---12tp10tp12tp13tp12tp10tp12tp---12tp10tp12tp---12tp10tp12tp-|
C|-0------------------------------8--------------7--------------|

Outro
PM  --   -   - ----   -   - ----   -   ---
D|--------------------------------------------------------|   
A|--------------------------------------------------------|   
F|--------------------------------------------------------|   
C|-----------------------------------------10-8-7----7----|
G|-----8---8--------7---7--------8---8------------10---8b-|
C|--00---0---0-0000---0---0-0000---0---000----------------|

PM  --   -   - ----   -   - ----   -   ---
D|---------------------------------------------------------|   
A|---------------------------------------------------------|   
F|---------------------------------------------------------|   
C|-----------------------------------------10-8-7----7-----|
G|-----8---8--------7---7--------8---8------------10---8pH-|
C|--00---0---0-0000---0---0-0000---0---000-----------------|

PM  --   -   - ----   -   - ----   -   ---
D|--------------------------------------------------------|   
A|--------------------------------------------------------|   
F|--------------------------------------------------------|   
C|-----------------------------------------10-8-7----7----|
G|-----8---8--------7---7--------8---8------------10---8b-|
C|--00---0---0-0000---0---0-0000---0---000----------------|

PM  --   -   - ----   -   - ----   -   --- -- - - -- - 
D|--------------------------------------------------------|   
A|--------------------------------------------------------|   
F|--------------------------------------------------------|   
C|-----------------------------------------10-8-7----7-0--|
G|-----8---8--------7---7--------8---8------------10---0--|
C|--00---0---0-0000---0---0-0000---0---000-------------0--|

Добавлено: 20.11.2014
Другие материалы по этой песне:
  • Аккорды и текст

Страница создана 20.11.2014
http://primanota.ru/bullet-for-my-valentine/my-fist-your-mouth-her-scars-lead-chords.htm
Привет, Гость.
Предлагаем пройти революционный курс по гитаре.
Подарок от PrimaNota.Ru, забирай!