PrimaNota.ru - самый крупный в мире бесплатный архив песенных текстов, аккордов, табулатур и нот


Bullet For My Valentine - Livin Life On The Edge Of A Knife - таба, видео

Регистрация Запомнить меня
Войти через:  Facebook Google Twitter Vk Yandex Mail.ru

Bullet For My Valentine - Livin Life On The Edge Of A Knife - таба, видео

Печатать
Просмотров: 243
DMOB1996

DROP C: CGCFAD

http://www.youtube.com/watch?v=zQeOkdhLaqo [Live At O2 Academy in Birmingham on 12 March 2013.]

This video helps me to solve this tab. I would say this is 99% accurate. SO pls comment 
if they r errors & rate
Bullet For My VAlentine
Temper Temper (2013)
Track 12

Livin' Life (On The Edge Of The Knife)

Intro
(0:00-0:27)

MAtt
d|-------------------------------|--------------------------------------|
a|-------------------------------|--------------------------------------|
f|----7-5-8~~-----7-5-8~~-8h10p8-|----7-5-8~~-----7-5-8~~-8h10p8-/7~~~--|
c|--7-----------7----------------|--7-----------7-----------------------|
g|5-----------5------------------|5-----------5-------------------------|
c|-------------------------------|--------------------------------------|


PAdge
d|-----------------------------|-----------------------------------------------|
a|-----------------------------|-----------------------------------------------|
f|-----------------------------|-----------------------------------------------|
c|77--77--77--77--8888--TWICE--|-77--77--77--77--10-10-10-10--FOUR-TIMES-------|
g|55--55--55--55--5555---------|-55--55--55--55--8--8--8--8--------------------|
c|-----------------------------|-----------------------------------------------|



Both guitars
(0:28-0:41)

d|--------------------------------------|
a|--------------------------------------|
f|--------------------------------------|
c|00--00-00--00---3333---FOUR-TIMES-----|
g|00--00-00--00---1111------------------|
c|00--00-00--00-------------------------|



Verse 1
(0:42-0:54)
I don't know where to start
Too many issues on my mind
This is straight from the heart
You need to take in the inside

MAtt ( Both guitars the same BUT....)
d|---------------------------------------|
a|---------------------------------------|
f|---------------------------------------|
c|0-3-3-3-0---0-3-3-3-0----3333---TWICE--|
g|0-3-1-3-0---0-3-1-3-0----1111----------|
c|0-3---3-0---0-3---3-0------------------|


Padge (Padge's PT is optional to play, Its just simple & i listen by ear)
d|--------------------------------------|
a|--------------------------------------|
f|--------------------------------------|
c|0-3-8-3-0---0-3-8-3-0----8888---------|  
g|0-3-8-3-0---0-3-8-3-0----8888---TWICE-| 
c|0-3-8-3-0---0-3-8-3-0----8888---------|


Pre-chorus
(0:55-1:08)
You wanna push me away
You wanna sacrifice what we made
I will not beg you to stay
And it hurts me to say

Matt
F|9999-10-10-10-10-10-10-10-9-10-9-7777-55555---TWICE---|

PAdge
d|--------------------------------------|-------------------------|
a|--------------------------------------|-------------------------|
f|--------------------------------------|-------------------------|
c|0-3-3-3-0-3-3--3-0--00-00-00----------|--0-3-3-3-0-3-3-3-0--0~--|
g|0-3-1-3-0-3-1--3-0--00-00-00---THRICE-|--0-3-1-3-0-3-1-3-0--0~--|
c|0-3---3-0-3----3-0--00-00-00----------|--0-3---3-0-3---3-0--0~--|
                      .. .. ..                                 .

Chorus
(1:09-1:35)
You're not alive
You're dead inside!
Living your life on the edge of a knife
Living your life on the edge of a knife

Matt ( 1:11 you can see matt playing the 5th fret)
d|--------------------------------------------------------------------|
a|--------------------------------------------------------------------|
f|--------------------------------------------------------------------|
c|5---------3----------00000---5----------3----------0-0-0-0---TWICE--|
g|5-SIXTEEN-3-SIXTEEN--00000---5-SIXTEEN--3-SIXTEEN--0-0-0-0----------|
c|5---------3----------00000---5----------3----------0-0-0-0----------|
                       .....                         . . . .

PAdge
d|----------------------------------------------------------------------|
a|----------------------------------------------------------------------|
f|10-----------12----------------10-----------12------------------------|
c|x--SIXTEEN---x--SIXTEEN-00000--x--SIXTEEN---x---SIXTEEN-0-0-0-0--TWICE|
g|8------------10---------00000--8------------10----------0-0-0-0-------|
c|------------------------00000---------------------------0-0-0-0-------|
                          .....                           . . . .
Pre-verse 2
(1:36-1:33)

MAtt
d|----------------------------------------|
a|----------------------------------------|
f|----7-5-8~~-----7-5--8~~-8h10p8-/7~~----|
c|--7-----------7-------------------------|
g|5-----------5---------------------------|
c|----------------------------------------|

PAdge
d|-----------------------------|
a|-----------------------------|
f|-----------------------------|
c|77--77--77--77--8888--TWICE--|
g|55--55--55--55--5555---------|
c|-----------------------------|

VERSE 2---
[repeat VERSE 1]
(1:44-1:56)
Don't know you're alive
Why don't you try and make things right
'Cause if you want to survive
You'll have to take a look inside

PRECHORUS---
[repeat PRECHORUS]
(1:57-2:09)

CHORUS---
[repeat CHORUS]
(2:10-2:36)
You're not right
You're dead inside!
Living your life on the edge of a knife
Living your life on the edge of a knife


INTERLUDE
(2:37-2:43)

d|-----------------------|------------------------------------------------------|
a|-----------------------|--------------------------PADGE-----------------------|
c|0~~~~~~----------------|------------------------------------------------------|
g|0~~~~~~-----MATT-------|------------------------------------------------------|
c|0~~~~~~----------------|00000-00000-00000-00000-00000-00000-00000-00000-12\---|
  .                       ..... ..... ..... ..... ..... ..... ..... .....


Both guitars
(2:44-2:50)

d|-------------------------------------------------------|
a|-------------------------------------------------------|
c|-------------------------------------------------------|
g|-------------------------------------------------------|
c|00000-00000-00000-00000-00000-00000-00000-00000-12\----|
  ..... ..... ..... ..... ..... ..... ..... .....


BRIDGE
(2:51-3:04)
Hey! You're dead inside!
You never knew you were fuckin alive
Hey! You're dead inside!
You're too weak, you will never survive

BOTH GUITARS
d|-----------------------------|
a|-----------------------------|
f|-----------------------------|
c|0-3-3-3-0-3-3--3-0--00-00-00-|
g|0-3-1-3-0-3-1--3-0--00-00-00-|
c|0-3---3-0-3----3-0--00-00-00-|
                      .. .. ..

d|---------------------------------|---------------------------------|
a|-----MATT------------------------|-----------PADGE-----------------|
f|---------------------------------|---------------------------------|
c|-0-3-3-3-0-3-3--3-0--00----------|--0-3-3-3-0-3-3--3-0--00---------|
g|-0-3-1-3-0-3-1--3-0--00----------|--0-3-1-3-0-3-1--3-0--00--3*~----|
c|-0-3---3-0-3----3-0--00-3*~------|--0-3---3-0-3----3-0--00---------|
                       ..                                 ..
BOTH GUITARS
d|-----------------------------|-----------------------------|
a|-----------------------------|-----------------------------|
f|-----------------------------|-----------------------------|
c|0-3-3-3-0-3-3--3-0--00-00-00-|-0-3-3-3-0-3-3--3-0--0-0-0-0-|
g|0-3-1-3-0-3-1--3-0--00-00-00-|-0-3-1-3-0-3-1--3-0--0-0-0-0-|
c|0-3---3-0-3----3-0--00-00-00-|-0-3---3-0-3----3-0--0-0-0-0-|
                      .. .. ..                       . . . .

Alterned pre-chorus
(3:05-3:17)
Poison, It runs through your veins
You wanna sacrifice what we made
HATRED!Is all that remains
And it hurts me to say

Matt
d|-----------------------------------|-----------------------|
a|-----------------------------------|-----------------------|
f|-----------------------------------|-----------------------|
c|0~~~----0~~~---0~~~---0~~~---0~~~--|-0---------------------|
g|0~~~----0~~~---0~~~---0~~~---0~~~--|-0---SIXTEEN TIMES-----|
c|0~~~----0~~~---0~~~---0~~~---0~~~--|-0---------------------|
                                       .
Padge
F|9999-10-10-10-10-10-10-10-9-10-9-7777-55555---TWICE---|

CHORUS
[repeat CHORUS]
(3:18-3:43)
You're not right
You're dead inside!
Living your life on the edge of a knife
Living your life on the edge of a knife

Matt
d|--------------------------------------------------------------------|
a|--------------------------------------------------------------------|
f|--------------------------------------------------------------------|
c|5---------3----------00000---5----------3----------0-0-0-0---TWICE--|
g|5-SIXTEEN-3-SIXTEEN--00000---5-SIXTEEN--3-SIXTEEN--0-0-0-0----------|
c|5---------3----------00000---5----------3----------0-0-0-0----------|
                       .....                         . . . .

PADGE (Not 1 & 0 its TEN)
d|------------------------------------------------------------------------------------|
a|------------------------------------------------------------------------------------|
f|10-----------12---------------------10------------12--------------------------------|
c|x--SIXTEEN---x--SIXTEEN-1010101010---x--SIXTEEN---x---SIXTEEN-1010101010-------TWICE|
g|8------------10---------1010101010---8------------10----------1010101010------------|
c|------------------------1010101010----------------------------1010101010------------|
                           . . . . .                            . . . .  .
OUTRO 

d|-------|
a|-------|
f|-------| Matt & Padge
c|-------|
g|-------|
c|2^~~---|

(4:49 you can see MAtt playing a power chord. I know you guys believe this part is:

C|----------0~--|
G|0-0--0--0-0~--| it be wrong i guess. But there's prove matt tuck is playing a power chord.
C|0-0--0--0-0~--|
  . .  .  .
d|-------------------------|------|----------------|---------------------|
a|-------------------------|------|----THRICE------|---------------------|
f|----------5~-------------|------|------------5~--|---------------------|
c|----------5~------THRICE-|-5--7-|------------5~--|---------------------|
g|0-0--0--0-3~-------------|-5--7-|--0-0--0--0-3~--|0-0--0--0--000-------|
c|0-0--0--0----------------|-5--7-|--0-0--0--0-----|0-0--0--0--000-------|
  . .  .  .                          . .  .  .      . .  .  .  ...

PADGE
D---------------------|
A------------- -------|
F----8^----8^---------| Repeat
C-12^---12^---12------| till end
G---------------------| 
C---------------------|


And we're done! Hope you guys enjoy.
Добавлено: 01.11.2013
Другие материалы по этой песне:

Страница создана 28.07.2013
http://primanota.ru/bullet-for-my-valentine/livin-life-on-the-edge-of-a-knife-chords.htm
Привет, Гость.
Предлагаем пройти революционный курс по гитаре.
Подарок от PrimaNota.Ru, забирай!