PrimaNota.ru - самый крупный в мире бесплатный архив песенных текстов, аккордов, табулатур и нот


Bullet For My Valentine - Live In Brixton (album) - таба, видео

Регистрация Запомнить меня
Войти через:  Facebook Google Twitter Vk Yandex Mail.ru

Bullet For My Valentine - Live In Brixton (album) - таба, видео

Печатать
Просмотров: 159
I am tabbing this DVD because BFMV is KICKASS! I have Played other people's tab
of these songs,so thank you ALL who have tabbed BFMV songs, You are all metal for
that. If you see your ta on here you are probably right i'm not tabbing any of
 it. If you are positive it is yours, E-mail me and I'll will put your name on
 here i dont have time to do it now, I'll only do it if you want me to so don't
 message me if you dont want credit Maggotslave@yahoo.com For that reason i only
 want credit for the idea of this tab. I've also altered the tempo and the notes
 for easy Live play of most songs. Watching the DvD should help to with the
 tempos of some songs. I'm not tabbing 'INTRO' because they dont play that live.
ENJOY!!

____________________________________________________________________________
                           Her voice Resides
----------------------------------------------------------------------------

D------------------------------------------------------------------------|
A------------------------------------------------------------------------|
F------------------------------------------------------------------------|
C-1/--0---------------------------------7-5------------------------------|
G-1/--0-0-0-0-0-0-0-0-0-0-0-0-0-0-0-------------7-8---8-7-8--12-10-12----|
C-1/--0-0-0-0-0-0-0-0-0-0-0-0-0-0-0-0-0-----0-0-----0-8-7-8--12-10-12----|
       pm.............................      ...     .

then
D-------------------------------------------------------------------------|
A-------------------------------------------------------------------------|
F----------------------------------------------------------5~~~~----------|
C--------------------------------------7-5-----------8~~~~-5~~~~----------|
G------0-0-0-0-0-0-0-0-0-0-0-0-0-0-------------7-8---8~~~~-3~~~~----x\----|
C------0-0-0-0-0-0-0-0-0-0-0-0-0-0-0-0-----0-0-----0-8~~~~----------x\----|
       pm.............................     ...     .

Verse ( x 2)

D---------------------------------------------------------|
A---------------------------------------------------------|
F---------------------------------------------------------|
C----0---------------------0-------------7-7-5-5-8-5-5----|
G----0-----------0-0-7-8-7-0------------------------------|
C----0-0-0-0-0-0-0-0-------0-0-0-0-0-0-0------------------|
       pm.......             ...........

D----------------------------------------------------------------|
A----------------------------------------------------------------|
F----------------------------------------14-14-12-12-15-12-12----|
C----0---------------------0-------------------------------------|
G----0-----------0-0-7-8-7-0-------------------------------------|
C----0-0-0-0-0-0-0-0-------0-0-0-0-0-0-0-------------------------|
       pm.......             ...........


Chorus

D------------------------------------------------------------|
A------------------------------------------------------------|
F----3-3-3--5-5-5---------10--9----3-3-3--5-5-5--------------|
C----3-3-3--5-5-5--7-7-7--10--9----3-3-3--5-5-5--------------|
G----1-1-1--3-3-3--7-7-7--8---7----1-1-1--3-3-3---xxxxxx\----|
C------------------7-7-7--------------------------xxxxxx\----|


D---------------------------------------------------------------------------|
A---------------------------------------------------------------------------|
F----3-3-3--5-5-5---------10--9----3-3-3--5-5-5-----------------------------|
C----3-3-3--5-5-5--7-7-7--10--9----3-3-3--5-5-5-7h8p7h8p7h8p7h8p7h8p7h8p7h8-|
G----1-1-1--3-3-3--7-7-7---8--7----1-1-1--3-3-3-----------------------------|
C------------------7-7-7----------------------------------------------------|


fill

D-------------------------------------------|
A-------------------------------------------|
F-------------------------------------------|
C-------------------------------------7*----|
G-------------------------------------------|
C----0-0-0-0-0-0-0-0-0-0-0-0-0-0-0-0--------|
     pm.............................

D---------------------------------------------------------------------|
A---------------------------------------------------------------------|
F---------------------------------------------------------------------|
C------------------------------------7-5------------------------------|
G----0-0-0-0-0-0-0-0-0-0-0-0-0-0-------------7-8---8-7-8--12-10-12----|  x 2
C----0-0-0-0-0-0-0-0-0-0-0-0-0-0-0-0-----0-0-----0-8-7-8--12-10-12----|
     pm.............................     ...     .

D-------------------------------------------------------------------|
A-------------------------------------------------------------------|
F-------------------------------------------------------------------|
C----------------------------------7-5------------------------------|
G-----------------------------------------7-8---8-7-8--12-10--------|
C----0-0--0-0--0-0--0-0--0-0--0-0-----0-0-----0-8-7-8--12-10-12*----|
     pm.  ...  ...  ...  ...  ...     ...     .

D-------------------------------------------------------------------------|
A-------------------------------------------------------------------------|
F-----------------------------------------------------5~------------------|
C----------------------------------7-5----------8~~~~-5~---------5--------|
G-----------------------------------------7-8---8~~~~-3~-7-5-7-8---8-7----|
C----0-0--0-0--0-0--0-0--0-0--0-0-----0-0-----0-8~~~~---------------------|
     pm.  ...  ...  ...  ...  ...     ...     .          (    Coda    )

Play verse again, then chorus again then fill again, but without coda


breakdown (with wah and phaser) a bunch of times

D----------------------------|
A----------------------------|
F----------------------------|
C----15-14----14-17-14-14----|
G----------15----------------|
C----------------------------|

guitar 1

D----------------------------------------------------------------|
A----------------------------------------------------------------|
F--------0-2----------0-2----------0-2---------------------------|
C------------5-0-3-5------5-0-3-5------5-0-3-5---8-7-5-7-5-------|
G----------------------------------------------------------8~----|   x 4
C----------------------------------------------------------------|

guitar 2

D----------------------------------------------------------------------|
A----------------------------------------------------------------------|
F-------------------------------------------------12-12-12-14-14-14----|
C-------------------------------------------------10-10-10-12-12-12----|
G-------0-0-----------0-0----------0-0------------10-10-10-12-12-12----|
C--12\--0-0-----------0-0----------0-0----------0-10-10-10-12-12-12----|
        pm.           ...          ...          .

D-------------------------------------------------------|
A-------------------------------------------------------|
F-------------------------------------------------------|
C-----------------------------------------------0~~-----|  x 2
G-------0-0-----------0-0----------0-0----------0~~-----|
C--12\--0-0-----------0-0----------0-0----------0~~-----|
        pm.           ...          ...          .

guitar solo

D-------------------------------------------------------------------------|
A-------------------------------------------------------------------------|
F------------------------------------------------------------10-12-14~----|
C---------------------------------------------------10-11-12--------------|
G----7-7-7-7-7-7-8-8-8-8-8-8-8-7-7-7-7-7-7-10-11-12-----------------------|
C-------------------------------------------------------------------------|
     pm...................................

D--------------------------------------------------|
A--------------------------------------------------|
F----14p12p10-----10h12p10h12p10-9h10p9h10p9-7~----|
C-------------12\----------------------------------|
G--------------------------------------------------|
C--------------------------------------------------|
              |
      slide to nowhere here

D----t17h13h10-t17h13h10-t17h13h10-t17h13h10---t15h11h8-t15h11h8-t15h11h8---|
A---------------------------------------------------------------------------|
F---------------------------------------------------------------------------|
C---------------------------------------------------------------------------|
G---------------------------------------------------------------------------|
C---------------------------------------------------------------------------|


D----t15h11h8---t13h9h6-t13h9h6-t13h9h6-t13h9h6--15~----|
A-------------------------------------------------------|
F-------------------------------------------------------|
C-------------------------------------------------------|
G-------------------------------------------------------|
c-------------------------------------------------------|


D--------------------------------------------------------|
A-------------11-10--------------------------------------|
F----10-9-----------9---10-9---7---10-9-12-9-10-9--------|
C---------8------------------7--------------------10-----|
G--------------------------------------------------------|
C--------------------------------------------------------|


D----t17h13h10-t17h13h10-t17h13h10-t17h13h10---t18h13h10-t18h13h10-t18h13h10-|
A----------------------------------------------------------------------------|
F----------------------------------------------------------------------------|
C----------------------------------------------------------------------------|
G----------------------------------------------------------------------------|
C----------------------------------------------------------------------------|


D----t18h13h10---t20h13h10-t20h13h10-t20h13h10-t20h13h10---------------------|
A----------------------------------------------------------------------------|
F-------------------------------------------------------14-14-12-12-15-12-12-|
C----------------------------------------------------------------------------|
G----------------------------------------------------------------------------|
C----------------------------------------------------------------------------|


The play chorus again, then fill with this change to the ending...


D--------------------------------------------------------------------|
A--------------------------------------------------------------------|
F--------------------------------------------------------------------|
C----------------------------------7-5-------------------------------|
G-----------------------------------------7-8---8-7-8--12~~-xxxx\----|
C----0-0--0-0--0-0--0-0--0-0--0-0-----0-0-----0-8-7-8--12~~-xxxx\----|
     pm.  ...  ...  ...  ...  ...     ...     .


fill 2 ( x 4) with wah and phaser

D--------------------------------------------------|
A--------------------------------------------------|
F--------------------------------------------------|
C----15-14----14-17-14-14--( x 3)--15-14-----------|
G----------15----------------------------14-14b----|
C--------------------------------------------------|


End

D------------------------------------------------------------|
A------------------------------------------------------------|
F------------------------------------------------------------|
C------------------------------------------------------------|
G----0-0--0-0--0-0--0-0~~--( x 3)--12\\\-0-0--0-0--0---------|
C----0-0--0-0--0-0--0-0~~----------12\\\-0-0--0-0--0-15*-----|
     pm.  ...  ...  ...

____________________________________________________________________________
                       4 words to choke upon
----------------------------------------------------------------------------
Intro


Guitar 1
D||--------17-------17----17-------18-------18----18------------------------|
A||--15-15----15-15----15----15-15----15-15----15--------Times-3------------|
F||-------------------------------------------------------------------------|
C||-------------------------------------------------------------------------|
G||-------------------------------------------------------------------------|
C||-------------------------------------------------------------------------|

D||--------17-------17----17-------20-------20----20------------------------|
A||--15-15----15-15----15----15-15----12-12----12---------------------------|


Guitar 2
D||-------------------------------------------------------------------------|
A||-------------------------------------------------------------------------|
F||-------------------------------------------------------------------------|
C||-0-----------------------------------------------------------------------|
G||-0--Let-Ring-Out--Times-4------------------------------------------------|
C||-0-----------------------------------------------------------------------|
   On 2nd and 4th time, slide the pick down the fret board.

Both Guitars
D||-------------------------------------------------------------------------|
A||-------------------------------------------------------------------------|
F||-------------------------------------------------------------------------|
C||-0--1--0-----0--1--0-----0--1--0-----------------------------------------|
G||-0--1--0-----0--1--0-----0--1--0-----------------------------------------|
C||-0--1--0--3--0--1--0--3--0--1--0-----------------------------------------|
    *  *  *  #  *  *  *  #  *  *  *


Verse

Guitar 1
D||-------------------------------------------------------------------------|
A||-------------------------------------------------------------------------|
F||--------14-------14----14-------15-------15----15------------------------|
C||--12-12----12-12----12----12-12----12-12----12--------Times-3------------|
G||-------------------------------------------------------------------------|
C||-------------------------------------------------------------------------|


Guitar 2
D||--------------------------------------------------------------------------|
A||--------------------------------------------------------------------------|
F||--------------------------------------------------------------------------|
C||-3--1--0----3--1--0----3--1--0----0--1--0----0--1--0----0--1--0---------3-|
G||-3--1--0----3--1--0----3--1--0----0--1--0----0--1--0----0--1--0-Times-2-3-|
C||-3--1--0----3--1--0----3--1--0----0--1--0--3-0--1--0--3-0--1--0---------3-|
    *  *  *    *  *  *    *  *  *    *  *  *  # *  *  *  # *  *  *


Chorus

Guitar 1
D||-------------------------------------------------------------------------|
A||-------------------------------------------------------------------------|
F||-------------------------------------------------------------------------|
C||-------------------------------------------------------------------------|
G||-7-5-0-7-5-0-7-5-0-7-5-0-7-5-7-5---3-2-0-3-2-0-3-2---8-7-5-8-5-8-5-------|
C||-------------------------------------------------------------------------|


D||-------------------------------------------------------------------------|
A||------------------------------------------------------------1/5---8-7-3--|
F||-------------------------------------------------------------------------|
C||-------------------------------------------------------------------------|
G||-7-5-0-7-5-0-7-5-0-7-5-0-7-5-7-5---3-2-0-3-2-0-3-2---8-7-5---------------|
C||-------------------------------------------------------------------------|


D||--------------------------------------------------------------------------|
A||--------------------------------------------------------------------------|
F||-0-0-0-0-0-0-0-0-0-0-0-0-0-0-0--------------------------------------------|
C||----------------------------------8-----7-----3---------------------------|
G||--------------------------------------------------------------------------|
C||--------------------------------------------------------------------------|


Guitar 2
D||-------------------------------------------------------------------------|
A||-------------------------------------------------------------------------|
F||-------------------------------------------------------------------------|
C||-7-7-7-7-7-7-7-7-7-7-7-7-7-7-7--8-8-8-8-8-8-8--7-7-7--3-3-3--------------|
G||-5-5-5-5-5-5-5-5-5-5-5-5-5-5-5--8-8-8-8-8-8-8--7-7-7--3-3-3--------------|
C||-0-0-0-0-0-0-0-0-0-0-0-0-0-0-0--8-8-8-8-8-8-8--7-7-7--3-3-3--------------|


D||-------------------------------------------------------------------------|
A||-------------------------------------------------------------------------|
F||-------------------------------------------------------------------------|
C||-7-7-7-7-7-7-7-7-7-7-7-7-7-7-7--8-8-8-8-8-8-8--10-10-10--3-3-3-----------|
G||-5-5-5-5-5-5-5-5-5-5-5-5-5-5-5--8-8-8-8-8-8-8--10-10-10--3-3-3-----------|
C||-0-0-0-0-0-0-0-0-0-0-0-0-0-0-0--8-8-8-8-8-8-8--10-10-10--3-3-3-----------|


D||-------------------------------------------------------------------------|
A||-------------------------------------------------------------------------|
F||-------------------------------------------------------------------------|
C||-7-7-7-7-7-7-7-7-7-7-7-7-7-7-7--8-8-8-8-8-8-8--7------3------------------|
G||-5-5-5-5-5-5-5-5-5-5-5-5-5-5-5--8-8-8-8-8-8-8--7------3------------------|
C||-0-0-0-0-0-0-0-0-0-0-0-0-0-0-0--8-8-8-8-8-8-8--7------3------------------|


D||-------------------------------------------------------------------------|
A||-------------------------------------------------------------------------|
F||-------------------------------------------------------------------------|
C||-7-7-7-7-7-7-7-7-7-7-7-7-7-7-7-------------------------------------------|
G||-5-5-5-5-5-5-5-5-5-5-5-5-5-5-5-------------------------------------------|
C||-0-0-0-0-0-0-0-0-0-0-0-0-0-0-0-------------------------------------------|


Both Guitars
D||-------------------------------------------------------------------------|
A||-------------------------------------------------------------------------|
F||--------7-------7---------7/8-7/8-------7-------7------------------------|
C||--------x-------x---------x-x-x-x-------x-------x------------------------|
G||--------5-------5---------5/6-5/6-------5-------5------------------------|
C||--0-0-0---0-0-0---0-0-0-0---------0-0-0---0-0-0---0-0-0-0--5b------------|
     * * *   * * *   * * **          * * *   * * *   * * * *

D||-------------------------------------------------------------------------|
A||-------------------------------------------------------------------------|
F||--------7-------7---------7/8-7/8-------7-------7------------------------|
C||--------x-------x---------x-x-x-x-------x-------x-----------------------|
G||--------5-------5---------5/6-5/6-------5-------5------------------------|
C||--0-0-0---0-0-0---0-0-0-0---------0-0-0---0-0-0---0-0-0-0--12/0----------|
     * * *   * * *   * * **          * * *   * * *   * * * *

D||-------------------------------------------------------------------------|
A||-------------------------------------------------------------------------|
F||-------------------------------------------------------------------------|
C||--0--1--0----0--1--0----0--1--0------------------------------------------|
G||--0--1--0----0--1--0----0--1--0------------------------------------------|
C||--0--1--0--3-0--1--0--3-0--1--0------------------------------------------|
     *  *  *  # *  *  *  # *  *  *


Verse

Guitar 1
D||-------------------------------------------------------------------------|
A||-------------------------------------------------------------------------|
F||--------14-------14----14-------15-------15----15------------------------|
C||--12-12----12-12----12----12-12----12-12----12--------Times-3------------|
G||-------------------------------------------------------------------------|
C||-------------------------------------------------------------------------|


Guitar 2
D||--------------------------------------------------------------------------|
A||--------------------------------------------------------------------------|
F||--------------------------------------------------------------------------|
C||-3--1--0----3--1--0----3--1--0----0--1--0----0--1--0----0--1--0---------3-|
G||-3--1--0----3--1--0----3--1--0----0--1--0----0--1--0----0--1--0-Times-2-3-|
C||-3--1--0----3--1--0----3--1--0----0--1--0--3-0--1--0--3-0--1--0---------3-|
    *  *  *    *  *  *    *  *  *    *  *  *  # *  *  *  # *  *  *

Chorus

Guitar 1
D||-------------------------------------------------------------------------|
A||-------------------------------------------------------------------------|
F||-------------------------------------------------------------------------|
C||-------------------------------------------------------------------------|
G||-7-5-0-7-5-0-7-5-0-7-5-0-7-5-7-5---3-2-0-3-2-0-3-2---8-7-5-8-5-8-5-------|
C||-------------------------------------------------------------------------|


D||-------------------------------------------------------------------------|
A||------------------------------------------------------------1/5---8-7-3--|
F||-------------------------------------------------------------------------|
C||-------------------------------------------------------------------------|
G||-7-5-0-7-5-0-7-5-0-7-5-0-7-5-7-5---3-2-0-3-2-0-3-2---8-7-5---------------|
C||-------------------------------------------------------------------------|


D||--------------------------------------------------------------------------|
A||--------------------------------------------------------------------------|
F||-0-0-0-0-0-0-0-0-0-0-0-0-0-0-0--------------------------------------------|
C||----------------------------------8-----7-----3---------------------------|
G||--------------------------------------------------------------------------|
C||--------------------------------------------------------------------------|


Guitar 2
D||-------------------------------------------------------------------------|
A||-------------------------------------------------------------------------|
F||-------------------------------------------------------------------------|
C||-7-7-7-7-7-7-7-7-7-7-7-7-7-7-7--8-8-8-8-8-8-8--7-7-7--3-3-3--------------|
G||-5-5-5-5-5-5-5-5-5-5-5-5-5-5-5--8-8-8-8-8-8-8--7-7-7--3-3-3--------------|
C||-0-0-0-0-0-0-0-0-0-0-0-0-0-0-0--8-8-8-8-8-8-8--7-7-7--3-3-3--------------|


D||-------------------------------------------------------------------------|
A||-------------------------------------------------------------------------|
F||-------------------------------------------------------------------------|
C||-7-7-7-7-7-7-7-7-7-7-7-7-7-7-7--8-8-8-8-8-8-8--10-10-10--3-3-3-----------|
G||-5-5-5-5-5-5-5-5-5-5-5-5-5-5-5--8-8-8-8-8-8-8--10-10-10--3-3-3-----------|
C||-0-0-0-0-0-0-0-0-0-0-0-0-0-0-0--8-8-8-8-8-8-8--10-10-10--3-3-3-----------|


D||-------------------------------------------------------------------------|
A||-------------------------------------------------------------------------|
F||-------------------------------------------------------------------------|
C||-7-7-7-7-7-7-7-7-7-7-7-7-7-7-7--8-8-8-8-8-8-8--7-7-7--3-3-3--------------|
G||-5-5-5-5-5-5-5-5-5-5-5-5-5-5-5--8-8-8-8-8-8-8--7-7-7--3-3-3--------------|
C||-0-0-0-0-0-0-0-0-0-0-0-0-0-0-0--8-8-8-8-8-8-8--7-7-7--3-3-3--------------|


D||-------------------------------------------------------------------------|
A||-------------------------------------------------------------------------|
F||-------------------------------------------------------------------------|
C||-7-7-7-7-7-7-7-7-7-7-7-7-7-7-7-------------------------------------------|
G||-5-5-5-5-5-5-5-5-5-5-5-5-5-5-5-------------------------------------------|
C||-0-0-0-0-0-0-0-0-0-0-0-0-0-0-0-------------------------------------------|


Both Guitars
D||-------------------------------------------------------------------------|
A||-------------------------------------------------------------------------|
F||--------7-------7---------7/8-7/8-------7-------7------------------------|
C||--------x-------x---------x-x-x-x-------x-------x------------------------|
G||--------5-------5---------5/6-5/6-------5-------5------------------------|
C||--0-0-0---0-0-0---0-0-0-0---------0-0-0---0-0-0---0-0-0-0--5b------------|
     * * *   * * *   * * * *         * * *   * * *   * * * *

D||-------------------------------------------------------------------------|
A||-------------------------------------------------------------------------|
F||--------7-------7---------7/8-7/8-------7-------7------------------------|
C||--------x-------x---------x-x-x-x-------x-------x------------------------|
G||--------5-------5---------5/6-5/6-------5-------5------------------------|
C||--0-0-0---0-0-0---0-0-0-0---------0-0-0---0-0-0---0-0-0-0--5b------------|
     * * *   * * *   * * * *         * * *   * * *   * * * *

D||-------------------------------------------------------------------------|
A||-------------------------------------------------------------------------|
F||-------------------------------------------------------------------------|
C||-------------------------------------------------------------------------|
G||-------------------------------------------------------------------------|
C||-0-0-0-1-0-0-0-1-0-0-0-1---0-0-0-1-0-0-0-1-0-0-0-1---12/0-----Times-2----|
    * * *   * * *   * * *     * * *   * * *   * * *


Solo - Guitar 2
D||--13P12-13P12----13P12-13P12----13P12-13P12-13P12---13P12---13P12--------|
A||--------------10-------------10------------------10------10------10------|
F||-------------------------------------------------------------------------|
C||-------------------------------------------------------------------------|
G||-------------------------------------------------------------------------|
C||-------------------------------------------------------------------------|


D||--13P12---13P12---13P12-13P12----13P12-13P12----13P12-13P12-13P12--------|
A||-------10------10------------10-------------10-------------------10------|
F||-------------------------------------------------------------------------|
C||-------------------------------------------------------------------------|
G||-------------------------------------------------------------------------|
C||-------------------------------------------------------------------------|


D||--13P12---13P12----------------------------------------------------------|
A||-------10------10--------------------------------------------------------|
F||-------------------5/7--7/10--8--7--5--7--5--3--5--3--8/0----------------|
C||-------------------------------------------------------------------------|
G||-------------------------------------------------------------------------|
C||-------------------------------------------------------------------------|


D||-----------13---------12---------13---------12---------13----------------|
A||--11-10-11---11-10-11---11-10-11---11-10-11---11-10-11---11-10-11--------|
F||-------------------------------------------------------------------------|
C||-------------------------------------------------------------------------|
G||-------------------------------------------------------------------------|
C||-------------------------------------------------------------------------|


D||-----------12------------------------------------------------------------|
A||--11-10-11---11-10-11-10-11-10-------------------------------------------|
F||-------------------------------------------------------------------------|
C||-------------------------------------------------------------------------|
G||-------------------------------------------------------------------------|
C||-------------------------------------------------------------------------|


D||--141414141414-131313131313-141414141414-131313131313--22b---------------|
A||-------------------------------------------------------------------------|
F||-------------------------------------------------------------------------|
C||-------------------------------------------------------------------------|
G||-------------------------------------------------------------------------|
C||--------------------------------------------------------------7b---------|


During solo guitar 1 plays
D||-------------------------------------------------------------------------|
A||-------------------------------------------------------------------------|
F||-------------------------------------------------------------------------|
C||-------------------------------------------------------------------------|
G||-------------------------------------------------------------------------|
C||-0-0-0-1-0-0-0-1-0-0-0-1-----0-0-0-1-0-0-0-1-0-0-0-1----------Times-2----|
    * * *   * * *   * * *       * * *   * * *   * * *


D||-------------------------------------------------------------------------|
A||-------------------------------------------------------------------------|
F||-------------------------------------------------------------------------|
C||-------------------------------------------------------------------------|
G||-------------------------------------------------------------------------|
C||-0-0-0-1-0-0-0-1-0-0-0-1-1b--0-0-0-1-0-0-0-1-0-0-0-1-1b-------Times-2----|
    * * *   * * *   * * *       * * *   * * *   * * *

D||-------------------------------------------------------------------------|
A||-------------------------------------------------------------------------|
F||-------------------------------------------------------------------------|
C||--8---7---3--------------------------------------------------------------|
G||--8---7---3--------------------------------------------------------------|
C||--8---7---3--------------------------------------------------------------|

Chorus

Guitar 1
D||-------------------------------------------------------------------------|
A||-------------------------------------------------------------------------|
F||-------------------------------------------------------------------------|
C||-------------------------------------------------------------------------|
G||-7-5-0-7-5-0-7-5-0-7-5-0-7-5-7-5---3-2-0-3-2-0-3-2---8-7-5-8-5-8-5-------|
C||-------------------------------------------------------------------------|


D||-------------------------------------------------------------------------|
A||------------------------------------------------------------1/5---8-7-3--|
F||-------------------------------------------------------------------------|
C||-------------------------------------------------------------------------|
G||-7-5-0-7-5-0-7-5-0-7-5-0-7-5-7-5---3-2-0-3-2-0-3-2---8-7-5---------------|
C||-------------------------------------------------------------------------|


D||--------------------------------------------------------------------------|
A||--------------------------------------------------------------------------|
F||-0-0-0-0-0-0-0-0-0-0-0-0-0-0-0--------------------------------------------|
C||----------------------------------8-----7-----3---------------------------|
G||--------------------------------------------------------------------------|
C||--------------------------------------------------------------------------|


Guitar 2
D||-------------------------------------------------------------------------|
A||-------------------------------------------------------------------------|
F||-------------------------------------------------------------------------|
C||-7-7-7-7-7-7-7-7-7-7-7-7-7-7-7--8-8-8-8-8-8-8--7-7-7--3-3-3--------------|
G||-5-5-5-5-5-5-5-5-5-5-5-5-5-5-5--8-8-8-8-8-8-8--7-7-7--3-3-3--------------|
C||-0-0-0-0-0-0-0-0-0-0-0-0-0-0-0--8-8-8-8-8-8-8--7-7-7--3-3-3--------------|


D||-------------------------------------------------------------------------|
A||-------------------------------------------------------------------------|
F||-------------------------------------------------------------------------|
C||-7-7-7-7-7-7-7-7-7-7-7-7-7-7-7--8-8-8-8-8-8-8--10-10-10--3-3-3-----------|
G||-5-5-5-5-5-5-5-5-5-5-5-5-5-5-5--8-8-8-8-8-8-8--10-10-10--3-3-3-----------|
C||-0-0-0-0-0-0-0-0-0-0-0-0-0-0-0--8-8-8-8-8-8-8--10-10-10--3-3-3-----------|


D||-------------------------------------------------------------------------|
A||-------------------------------------------------------------------------|
F||-------------------------------------------------------------------------|
C||-7-7-7-7-7-7-7-7-7-7-7-7-7-7-7--8-8-8-8-8-8-8--7------3------------------|
G||-5-5-5-5-5-5-5-5-5-5-5-5-5-5-5--8-8-8-8-8-8-8--7------3------------------|
C||-0-0-0-0-0-0-0-0-0-0-0-0-0-0-0--8-8-8-8-8-8-8--7------3------------------|


D||-------------------------------------------------------------------------|
A||-------------------------------------------------------------------------|
F||-------------------------------------------------------------------------|
C||-7-7-7-7-7-7-7-7-7-7-7-7-7-7-7-------------------------------------------|
G||-5-5-5-5-5-5-5-5-5-5-5-5-5-5-5-------------------------------------------|
C||-0-0-0-0-0-0-0-0-0-0-0-0-0-0-0-------------------------------------------|


Both Guitars
D||-------------------------------------------------------------------------|
A||-------------------------------------------------------------------------|
F||--------7-------7---------7/8-7/8-------7-------7------------12----------|
C||--------x-------x---------x-x-x-x-------x-------x------------------------|
G||--------5-------5---------5/6-5/6-------5-------5------------------------|
C||--0-0-0---0-0-0---0-0-0-0---------0-0-0---0-0-0---0-0-0-0----------------|
     * * *   * * *   * * * *         * * *   * * *   * * * *    #


D||-------------------------------------------------------------------------|
A||-------------------------------------------------------------------------|
F||--------7-------7---------7/8-7/8-------7-------7------------------------|
C||--------x-------x---------x-x-x-x-------x-------x------------------------|
G||--------5-------5---------5/6-5/6-------5-------5------------------------|
C||--0-0-0---0-0-0---0-0-0-0---------0-0-0---0-0-0---0-0-0-0----------------|
     * * *   * * *   * * * *         * * *   * * *   * * * *

D||-------------------------------------------------------------------------|
A||-------------------------------------------------------------------------|
F||-------------------------------------------------------------------------|
C||--7-8-7-8-----------2-3-2-3-0--------------------------------------------|
G||--7-8-7-8-----------2-3-2-3-0--------------------------------------------|
C||--7-8-7-8-----------2-3-2-3-0--------------------------------------------|

____________________________________________________________________________
                    Suffocating under words of sorrow
----------------------------------------------------------------------------
Gtr I
  PM|    PM  PM|     PM  PM   PM   PM
|------------------|-------------------|
|------------------|-------------------|
|------------------|-------------------|
|-----10---9-----5-|---7---12---10---9-|
|-0-0----0---0-0---|-0---0----0----0---|
|------------------|-------------------|
|
| Gtr II
|------------------|-------------------|
|------------------|-------------------|
|------------------|-------------------|
|-2-2--------------|-----------------2-|
|-0-0--------------|-----------------0-|
|------------------|-------------------|


         PM--------|
|--------------------|---------------------------------------|
|--------------------|---------------------------------------|
|--------------------|--9h10p===9--7h9p===7--5h7p===5--4-----|
|-(9)-10-------------|---------------------------------------|
|--------0-0-0-0-0-0-|-----------------------------------0---|
|--------------------|---------------------------------------|
|
|                      Gtr III                           Gtr II
|--------------------|---------------------------------------|
|--------------------|---------------------------------------|
|--------------------|---------------------------------------|
|-(2)--2-------------|-----------------------------------2---|
|-(0)--0-------------|-24S===22S==21S==19S==17S==15S==14-0---|
|--------------------|-24S===22S==21S==19S==17S==15S==14-----|

 A5
      PM   PM  PM|     PM  PM   PM   PM
|--------------------|-------------------|
|--------------------|-------------------|
|--------------------|-------------------|
|-------10---9-----5-|---7---12---10---9-|
|-(0)-0----0---0-0---|-0---0----0----0---|
|--------------------|-------------------|
|
|--------------------|-------------------|
|--------------------|-------------------|
|--------------------|-------------------|
|-(2)----------------|-----------------2-|
|-(0)----------------|-----------------0-|
|--------------------|-------------------|


         PM-----------------------------|
|--------------------|----------------------|
|--------------------|----------------------|
|--------------------|--9-10--7--9-5--7-4---|
|-(9)-10-------------|----------------------|
|--------0-0-0-0-0-0-|--------------------0-|
|--------------------|----------------------|
|
|                       PM--------------|
|--------------------|----------------------|
|--------------------|----------------------|
|--------------------|-12-14-10-12-9-10-7---|
|-(2)--2-------------|----------------------|
|-(0)--0-------------|--------------------0-|
|--------------------|----------------------|


  N.C.
      PM   PM   PM|     PM   PM   PM   PM
|---------------------|---------------------|
|---------------------|---------------------|
|---------------------|---------------------|
|-------10----9-----5-|----7---12---10----9-|
|-(0)-0----0----0-0---|-0----0----0----0----|
|---------------------|---------------------|
|
|     PM   PM   PM|     PM   PM   PM   PM
|---------------------|---------------------|
|---------------------|---------------------|
|---------------------|---------------------|
|-------14---12-----9-|---10---15---14---12-|
|-(0)-0----0----0-0---|-0----0----0----0----|
|---------------------|---------------------|


          PM--------|
|---------------------|-------------------------------|
|---------------------|-------------------------------|
|---------------------|--9h10p=9--7h=9p=7-5h=7p5-4----|
|--(9)-10-------------|-------------------------------|
|---------0-0-0-0-0-0-|----------------------------0--|
|---------------------|-------------------------------|
|
|         PM--------|
|---------------------|-------------------------------|
|---------------------|-------------------------------|
|---------------------|-12h14p12-10h12p10-9h10p9-7----|
|-(12)-14-------------|-------------------------------|
|---------0-0-0-0-0-0-|----------------------------0--|
|---------------------|-------------------------------|


  N.C.
      PM   PM   PM|     PM   PM   PM   PM
|---------------------|---------------------|
|---------------------|---------------------|
|---------------------|---------------------|
|-------10----9-----5-|----7---12---10----9-|
|-(0)-0----0----0-0---|-0----0----0----0----|
|---------------------|---------------------|
|
|     PM   PM   PM|     PM   PM   PM   PM
|---------------------|---------------------|
|---------------------|---------------------|
|---------------------|---------------------|
|-------14---12-----9-|---10---15---14---12-|
|-(0)-0----0----0-0---|-0----0----0----0----|
|---------------------|---------------------|


                                           F5
          PM-----------------------------|
|---------------------|----------------------|
|---------------------|----------------------|
|---------------------|--9-10--7--9-5--7-4---|
|--(9)-10-------------|--------------------3-|
|---------0-0-0-0-0-0-|--------------------3-|
|---------------------|--------------------3-|
|
|         PM-----------------------------|
|---------------------|----------------------|
|---------------------|----------------------|
|---------------------|-12-14-10-12-9-10-7---|
|-(12)-14-------------|--------------------3-|
|---------0-0-0-0-0-0-|--------------------3-|
|---------------------|--------------------3-|

 Verse
  F5                           N.C.
                                         PM   PM   PM|     PM   PM   PM   PM
|----------------|---------------||----------------------|-----------------|
|----------------|---------------||o---------------------|-----------------|
|-------5--5--5--|-5--4--4-4-4---||----------------------|-----------------|
|-(3)-3----------|---------------||--------10----9-----5-|----7---12---10--|
|-(3)-3-3--3--3--|-3--3--3-3-3-0-||o-(0)-0----0----0-0---|-0----0----0----0|
|-(3)-3----------|---------------||----------------------|-----------------|
|
|                                        PM   PM   PM|     PM   PM   PM   PM
|----------------|---------------||----------------------|-----------------|
|----------------|---------------||o---------------------|-----------------|
|----------------|---------------||----------------------|-----------------|
|-(3)-3-3--3--3--|-3--3--3-3-3---||--------14---12-----9-|---10---15---14--|
|-(3)-3-3--3--3--|-3--3--3-3-3-0-||o-(0)-0----0----0-0---|-0----0----0----0|
|-(3)-3-3--3--3--|-3--3--3-3-3---||----------------------|-----------------|

N.C.
          PM--------|
|---------------------|------------------------------|
|---------------------|------------------------------|
|---------------------|--9h10p=9--7h=9p=7-5h=7p5-4---|
|--(9)-10-------------|------------------------------|
|---------0-0-0-0-0-0-|----------------------------0-|
|---------------------|------------------------------|
|
|         PM--------|
|---------------------|------------------------------|
|---------------------|------------------------------|
|---------------------|-12h14p12-10h12p10-9h10p9-7---|
|-(12)-14-------------|------------------------------|
|---------0-0-0-0-0-0-|----------------------------0-|
|---------------------|------------------------------|


      PM   PM   PM|     PM   PM   PM   PM
|---------------------|----------------------|
|---------------------|----------------------|
|---------------------|----------------------|
|-------10----9-----5-|----7---12---10----9--|
|-(0)-0----0----0-0---|-0----0----0----0-----|
|---------------------|----------------------|
|
|     PM   PM   PM|     PM   PM   PM   PM
|---------------------|----------------------|
|---------------------|----------------------|
|---------------------|----------------------|
|-------14---12-----9-|---10---15---14---12--|
|-(0)-0----0----0-0---|-0----0----0----0-----|
|---------------------|----------------------|


  N.C.
          PM-----------------------------|
|---------------------|----------------------|
|---------------------|----------------------|
|---------------------|--9-10--7--9-5--7-4---|
|--(9)-10-------------|----------------------|
|---------0-0-0-0-0-0-|--------------------0-|
|---------------------|----------------------|
|
|         PM-----------------------------|
|---------------------|----------------------|
|---------------------|----------------------|
|---------------------|-12-14-10-12-9-10-7---|
|-(12)-14-------------|----------------------|
|---------0-0-0-0-0-0-|--------------------0-|
|---------------------|----------------------|


      PM   PM   PM|     PM   PM   PM   PM
|---------------------|---------------------|
|---------------------|---------------------|
|---------------------|---------------------|
|-------10----9-----5-|----7---12---10----9-|
|-(0)-0----0----0-0---|-0----0----0----0----|
|---------------------|---------------------|
|
|     PM   PM   PM|     PM   PM   PM   PM
|---------------------|---------------------|
|---------------------|---------------------|
|---------------------|---------------------|
|-------14---12-----9-|---10---15---14---12-|
|-(0)-0----0----0-0---|-0----0----0----0----|
|---------------------|---------------------|


  N.C.
          PM--------|                                      PM   PM   PM|
|---------------------|------------------------------|---------------------|
|---------------------|------------------------------|---------------------|
|---------------------|--9h10p=9--7h=9p=7-5h=7p5-4---|---------------------|
|--(9)-10-------------|------------------------------|-------10----9-----5-|
|---------0-0-0-0-0-0-|----------------------------0-|-(0)-0----0----0-0---|
|---------------------|------------------------------|---------------------|


|         PM--------|                                      PM   PM   PM|
|---------------------|------------------------------|---------------------|
|---------------------|------------------------------|---------------------|
|---------------------|-12h14p12-10h12p10-9h10p9-7---|---------------------|
|-(12)-14-------------|------------------------------|-------14---12-----9-|
|---------0-0-0-0-0-0-|----------------------------0-|-(0)-0----0----0-0---|
|---------------------|------------------------------|---------------------|

  N.C.                                                           F5
  PM   PM   PM   PM             PM-----------------------------|
|---------------------|---------------------|----------------------|
|---------------------|---------------------|----------------------|
|---------------------|---------------------|--9-10--7--9-5--7-4---|
|----7---12---10----9-|--(9)-10-------------|--------------------3-|
|-0----0----0----0----|---------0-0-0-0-0-0-|--------------------3-|
|---------------------|---------------------|--------------------3-|
|
| PM   PM   PM   PM             PM-----------------------------|
|---------------------|---------------------|----------------------|
|---------------------|---------------------|----------------------|
|---------------------|---------------------|-12-14-10-12-9-10-7---|
|---10---15---14---12-|-(12)-14-------------|--------------------3-|
|-0----0----0----0----|---------0-0-0-0-0-0-|--------------------3-|
|---------------------|---------------------|--------------------3-|


 Chorus
  F5                           A5                                  F5
|----------------|---------------|-----------------|-----------------|
|----------------|---------------|-----------------|-----------------|
|-------5--5--5--|-5--4--4-4-4-2-|-(2)-2-4p0-5---2-|-(2)-2-4p0-5-----|
|-(3)-3----------|-------------2-|-(2)-2---------2-|-(2)-2---------3-|
|-(3)-3-3--3--3--|-3--3--3-3-3-0-|-(0)-0---------0-|-(0)-0---------3-|
|-(3)-3----------|---------------|-----------------|---------------3-|
|
|----------------|---------------|-----------------|-----------------|
|----------------|---------------|-----------------|-----------------|
|----------------|-------------2-|-(2)-2-7p0-9---2-|-(2)-2-7p0-9-----|
|-(3)-3-3--3--3--|-3--3--3-3-3-2-|-(2)-2---------2-|-(2)-2---------3-|
|-(3)-3-3--3--3--|-3--3--3-3-3-0-|-(0)-0---------0-|-(0)-0---------3-|
|-(3)-3-3--3--3--|-3--3--3-3-3---|-----------------|---------------3-|


  F5                           G5                                     F5
                                                         PM---------|
|----------------|---------------|-----------------|--------------------|
|----------------|---------------|-----------------|--------------------|
|-------5--5--5--|-5--4--4-4-4---|-------4p0-5-----|-----5-4----7-5-4---|
|-(3)-3----------|-------------5-|-(5)-5---------5-|-(5)-----5--------3-|
|-(3)-3-3--3--3--|-3--3--3-3-3-5-|-(5)-5---------5-|-(5)--------------3-|
|-(3)-3----------|-------------5-|-(5)-5---------5-|-(5)--------------3-|
|
|                                                        PM---------|
|----------------|---------------|-----------------|--------------------|
|----------------|---------------|-----------------|--------------------|
|----------------|---------------|-------7p0-9-----|-----9-7---10-9-7---|
|-(3)-3-3--3--3--|-3--3--3-3-3-5-|-(5)-5---------5-|-(5)-----9--------3-|
|-(3)-3-3--3--3--|-3--3--3-3-3-5-|-(5)-5---------5-|-(5)--------------3-|
|-(3)-3-3--3--3--|-3--3--3-3-3-5-|-(5)-5---------5-|-(5)--------------3-|

  F5                           A5                                     F5
                                                            ~~~
|----------------|---------------|-----------------|--------------------|
|----------------|---------------|-----------------|--------------------|
|-------5--5--5--|-5--4--4-4-4-2-|-(2)-2-4p0-5---2-|-(2)-2-[4]--2h4p2---|
|-(3)-3----------|-------------2-|-(2)-2---------2-|-(2)-2------------3-|
|-(3)-3-3--3--3--|-3--3--3-3-3-0-|-(0)-0---------0-|-(0)-0------------3-|
|-(3)-3----------|---------------|-----------------|------------------3-|
|
|                                                           ~~~
|----------------|---------------|-----------------|--------------------|
|----------------|---------------|-----------------|--------------------|
|----------------|-------------2-|-(2)-2-7p0-9---2-|-(2)-2-[7]--5h7p5---|
|-(3)-3-3--3--3--|-3--3--3-3-3-2-|-(2)-2---------2-|-(2)-2------------3-|
|-(3)-3-3--3--3--|-3--3--3-3-3-0-|-(0)-0---------0-|-(0)-0------------3-|
|-(3)-3-3--3--3--|-3--3--3-3-3---|-----------------|------------------3-|


  F5                           G5                                     A5
|----------------|---------------|-----------------|---------------------||
|----------------|---------------|-----------------|--------------------o||
|-------5--5--5--|-5--4--4-4-4---|-------4p0-5-----|-------4-0--7-5-4----||
|-(3)-3----------|-------------5-|-(5)-5---------5-|-(5)-5---------------||
|-(3)-3-3--3--3--|-3--3--3-3-3-5-|-(5)-5---------5-|-(5)-5------------0-o||
|-(3)-3----------|-------------5-|-(5)-5---------5-|-(5)-5---------------||
|
|----------------|---------------|-----------------|---------------------||
|----------------|---------------|-----------------|--------------------o||
|----------------|---------------|-------7p0-9-----|-------7-0-10-9-7----||
|-(3)-3-3--3--3--|-3--3--3-3-3-5-|-(5)-5---------5-|-(5)-5------------2--||
|-(3)-3-3--3--3--|-3--3--3-3-3-5-|-(5)-5---------5-|-(5)-5------------0-o||
|-(3)-3-3--3--3--|-3--3--3-3-3-5-|-(5)-5---------5-|-(5)-5---------------||

Guitar Solo
  A5
|--------------------|---------------------|---------------------|
|-10-----------10-12-|-13---12---10--------|---------------10-12-|
|--------------------|----------------10-9-|-(9)-----------------|
|--------------------|---------------------|---------------------|
|--------------------|---------------------|---------------------|
|--------------------|---------------------|---------------------|
|
|    PM-----------------------------------------------------------
|--------------------|---------------------|---------------------|
|--------------------|---------------------|---------------------|
|------2-----2-------|----2---------2------|-----2-------2-------|
|--2---2-----2-------|----2---------2------|-----2-------2-------|
|--0-0-0-0-0-0--0--0-|--0-0--0-0--0-0--0-0-|--0--0-0-0-0-0--0--0-|
|--------------------|---------------------|---------------------|


  C5                                       F5
|---------------------------------------------|
|-(12)b13r(12)-(12)b13r(12)-(12)b13r(12)------|
|----------------------------------------9-10-|
|---------------------------------------------|
|---------------------------------------------|
|---------------------------------------------|
|
|----------------------------------------|
|---------------------------------------------|
|---------------------------------------------|
|---5-------5----5-------5----5-------5-------|
|---5-------5----5-------5----5-------5--5--3-|
|---3-------3----3-------3----3-------3--3--3-|
|-------------------------------------------3-|


  F5                                          G5
|----------------------|------------------------|
|----------------10-12-|-/13----12---/15---12---|
|-(10)-----------------|------------------------|
|----------------------|------------------------|
|----------------------|------------------------|
|----------------------|------------------------|
|
|      PM--------|            PM-----------|
|----------------------|------------------------|
|----------------------|------------------------|
|----------------------|------------------------|
|--(3)---------------3-|--(3)-----------------5-|
|--(3)---------------3-|--(3)-----------------5-|
|--(3)-3-3-3-3-3--3--3-|--(3)-3--3-3---3-3--3-5-|
|
| Gtr IV
|-----------------8-10-|-/12----10---/13---10---|
|----------------------|------------------------|
|----------------------|------------------------|
|----------------------|------------------------|
|----------------------|------------------------|
|----------------------|------------------------|


                                          A5
|-------------------|------------------------|
|-13-------15-------|-13-----15p13p12--------|
|-------------------|------------------------|
|-------------------|------------------------|
|-------------------|------------------------|
|-------------------|------------------------|
|
|    PM----|    PM     PM|    PM
|-------------------|------------------------|
|-------------------|------------------------|
|-------------------|---------------------2--|
|--5----------5---5-|------7-------10-9-7-2--|
|--5----------5---5-|---------------------0--|
|--5-5-5-5--5-5-5-5-|--5-5----5--------------|
|
|-12-------13-------|-12-----13p12p10--------|
|-------------------|------------------------|
|-------------------|------------------------|
|-------------------|------------------------|
|-------------------|------------------------|
|-------------------|------------------------|


  A5
                 T                T
|-------------------------------------|
|-------------------------------------|
|--7h=9p7h9p7h9-14-9p7h9p7h9p7h9-12-9p|
|-------------------------------------|
|-------------------------------------|
|-------------------------------------|
|
|       PM-----------------------------
|-------------------------------------|
|-------------------------------------|
|-(2)---------------------------------|
|-(2)-------2--------2-------2--------|
|-(0)---0-0-0----0-0-0---0-0-0----0-0-|
|-------------------------------------|


                                                                     C5
       T                T        T          T            T            T
|------------------------------------|------------------------------------|
|------------------------------------|------------------------------------|
|-7h9-14-9p7h9p7h9p7h9-14-9p7h9-12-9p|=7h9-13-9p7h9p7h9-14-9p7h9p7h9-12-9-|
|------------------------------------|------------------------------------|
|------------------------------------|------------------------------------|
|------------------------------------|------------------------------------|
|
|-----------------------------------------------------------------------|
|------------------------------------|------------------------------------|
|------------------------------------|------------------------------------|
|------------------------------------|------------------------------------|
|-2--------2-------2--------2--------|-2--------2--------2-------2--------|
|-0----0-0-0---0-0-0----0-0-0----0-0-|-0----0-0-0---0-0--0---0-0-0----3-3-|
|------------------------------------|------------------------------------|

 C5                         F5
             T
|--------------------------------|-------------------------|
|--------------------------------|-------------------------|
|-7h9p7h9p7-12-7h9---------------|-------------------------|
|------------------10\-----------|-7-----------9-----------|
|------------------10\-----------|-------------------------|
|--------------------------------|-------------------------|
|
| PM--------------------------------------------------------
|--------------------------------|-------------------------|
|--------------------------------|-------------------------|
|--------------------------------|-------------------------|
|-5-------5---------5------5-----|-------------------------|
|-3---3-3-3----3-3--3--3-3-3-----|-3-----3-----3-----3-----|
|----------------------------3-3-|-3-3-3-3-3-3-3-3-3-3-3-3-|


                        G5
|---------------------------|----------------------------|
|---------------------------|----------------------------|
|---------------------------|--9-----------10------------|
|-10-----------12-----------|-10-----------12------------|
|---------------------------|----------------------------|
|---------------------------|----------------------------|
|
|-----------------------------------------------------|
|---------------------------|----------------------------|
|---------------------------|----------------------------|
|---------------------------|----------------------------|
|---------------------------|----------------------------|
|--3-----3------3-----3-----|--5-----5------5-----5------|
|--3-3-3-3-3-3--3-3-3-3-5-5-|--5-5-5-5-5-5--5-5-5-5-5-5--|


                            Bridge
  G5                         A5
                             >
|--------------------------|-------------------|
|--------------------------|-------------------|
|--9-----------7-----------|-5-----------------|
|-10-----------9-----------|-7-----------------|
|--------------------------|-------------------|
|--------------------------|-------------------|
|
|  PM--------------------------|    PM     PM
|--------------------------|-------------------|
|--------------------------|-------------------|
|--------------------------|-------------------|
|--------------------------|-----10---10-9-----|
|--5-----5-----5-----5-----|-0-0----0------0-0-|
|--5-5-5-5-5-5-5-5-5-5-5-5-|-------------------|
|
| Gtr V
|--------------------------|-------------------|
|--------------------------|-------------------|
|--------------------------|-2-----------------|
|--------------------------|-2-----------------|
|--------------------------|-0-----------------|
|--------------------------|-------------------|


|---------------------|---------------------|-----------------------|
|---------------------|---------------------|-----------------------|
|-(5)-----------------|-(5)-----------------|-----------------------|
|-(7)-----------------|-(7)-----------------|-----------------------|
|---------------------|---------------------|-----------------------|
|---------------------|---------------------|-----------------------|
|
|  PM-|      PM|         PM-|    PM     PM     PM-|      PM|
|---------------------|---------------------|-----------------------|
|---------------------|---------------------|-----------------------|
|---------------------|---------------------|-----------------------|
|-12----12-9-----9-10-|-------10---10-9-----|-12----12-9-----9-10---|
|-----0------0-0------|--0--0----0------0-0-|-----0------0-0--------|
|---------------------|---------------------|-----------------------|
|
|---------------------|---------------------|-----------------------|
|---------------------|---------------------|-----------------------|
|-(2)-----------------|-(2)-----------------|-(2)-------------------|
|-(2)-----------------|-(2)-----------------|-(2)-------------------|
|-(0)-----------------|-(0)-----------------|-(0)-------------------|
|---------------------|---------------------|-----------------------|

  F5
|-------------------|---------------------|
|-------------------|---------------------|
|-------------------|---------------------|
|-------------------|---------------------|
|-------------------|---------------------|
|-------------------|---------------------|
|
| PM|    PM     PM     PM-|      PM|
|-------------------|---------------------|
|-------------------|---------------------|
|-------------------|---------------------|
|-----10---10-9-----|-12----12-9-----9-10-|
|-8-8----8------8-8-|-----8------8-8------|
|-------------------|---------------------|
|
|-------------------|---------------------|
|-------------------|---------------------|
|-------------------|---------------------|
|-3-----------------|-(3)-----------------|
|-3-----------------|-(3)-----------------|
|-3-----------------|-(3)-----------------|


  G5
|------------------------|------------------------|
|------------------------|------------------------|
|------------------------|------------------------|
|------------------------|------------------------|
|------------------------|------------------------|
|------------------------|------------------------|
|
|  PM|      PM      PM      PM-|        PM|
|------------------------|------------------------|
|------------------------|------------------------|
|------------------------|------------------------|
|-------10----10-9-------|-12-----12-9-------9-10-|
|-10-10----10------10-10-|-----10------10-10------|
|------------------------|------------------------|
|
|------------------------|------------------------|
|------------------------|------------------------|
|------------------------|------------------------|
|--5---------------------|-(5)--------------------|
|--5---------------------|-(5)--------------------|
|--5---------------------|-(5)--------------------|


  A5
  PM|           PM|             PM|
|-------------------|--------------------|
|-------------------|--------------------|
|-------------------|--------------------|
|-2-2-----------2-2-|-----------2-2------|
|-0-0-----------0-0-|-----------0-0------|
|-------------------|--------------------|
|
| PM|    PM     PM     PM|      PM|
|-------------------|--------------------|
|-------------------|--------------------|
|-------------------|--------------------|
|-----10---10-9-----|-12---12-9-----9-10-|
|-0-0----0------0-0-|----0------0-0------|
|-------------------|--------------------|


  PM|           PM|             PM|
|-------------------|--------------------|
|-------------------|--------------------|
|-------------------|--------------------|
|-2-2-----------2-2-|-----------2-2------|
|-0-0-----------0-0-|-----------0-0------|
|-------------------|--------------------|
|
| PM|    PM     PM     PM|      PM|
|-------------------|--------------------|
|-------------------|--------------------|
|-------------------|-12---12-9----12-13-|
|-----10---10-9-----|--------------------|
|-0-0----0------0-0-|----0------0-0------|
|-------------------|--------------------|


  F5
  PM|           PM|             PM|
|-------------------|--------------------|
|-------------------|--------------------|
|-------------------|--------------------|
|-------------------|--------------------|
|-3-3-----------3-3-|-----------3-3------|
|-3-3-----------3-3-|-----------3-3------|
|
| PM|    PM     PM     PM|      PM|
|-------------------|--------------------|
|-------------------|--------------------|
|-------------------|--------------------|
|-----10---10-9-----|-12---12-9-----9-10-|
|-8-8----8------8-8-|----8------8-8------|
|-------------------|--------------------|


  G5
   PM|              PM|           ~~
|------------------------|-------------|
|------------------------|-------------|
|------------------------|-------------|
|------------------------|-15----14----|
|--5--5-------------5--5-|-------------|
|--5--5-------------5--5-|-------------|
|
|  PM|      PM      PM            ~~
|------------------------|-------------|
|------------------------|-------------|
|------------------------|-------------|
|-------10----10-9-------|-12----10----|
|-10-10----10------10-10-|-------------|
|------------------------|-------------|


  N.C.
  PM|    PM     PM|      PM     PM|
|-------------------|--------------------|
|-------------------|--------------------|
|------9----9-7-----|-10---10-7-----7--9-|
|-7-7----7------7-7-|----7------7-7------|
|-------------------|--------------------|
|-------------------|--------------------|
|
| PM|    PM     PM     PM|      PM|
|-------------------|--------------------|
|-------------------|--------------------|
|-------------------|--------------------|
|-----10---10-9-----|-12---12-9-----9-10-|
|-0-0----0------0-0-|----0------0-0------|
|-------------------|--------------------|


  PM|    PM     PM|      PM     PM|
|-------------------|--------------------|
|-------------------|--------------------|
|------9----9-7-----|-10---10-7-----7--9-|
|-7-7----7------7-7-|----7------7-7------|
|-------------------|
Добавлено: 22.06.2012
Другие материалы по этой песне:
  • Аккорды и текст

Страница создана 22.06.2012
http://primanota.ru/bullet-for-my-valentine/live-in-brixton-album-chords.htm
Привет, Гость.
Предлагаем пройти революционный курс по гитаре.
Подарок от PrimaNota.Ru, забирай!