PrimaNota.ru - самый крупный в мире бесплатный архив песенных текстов, аккордов, табулатур и нот


Bullet For My Valentine - Leech - таба, видео

Регистрация Запомнить меня
Войти через:  Facebook Google Twitter Vk Yandex Mail.ru

Bullet For My Valentine - Leech - таба, видео

Печатать
Просмотров: 508
Leech - Bullet For My Valentine
Off the album Temper Temper

Tuning: Drop C (CGCFAD)

|---------------|
|b   - Bend     |
|... - Palm Mute|
|~   - Let Ring |
|x   - Mute Note|
|---------------|
Repeat each as many times a necessary.
Ive tabbed for one guitar but i'll show when 2 guitars are needed.

Intro:

Guitar 1:
|------------------------------|
|------------------------------|
|------------------------------|
|-0~~~~--3~~~~--5~~~~--8~~-5~~-|
|-0~~~~--3~~~~--5~~~~--8~~-5~~-|
|-0~~~~--3~~~~--5~~~~--8~~-5~~-|

|------------------------------|
|------------------------------|
|------------------------------|
|-0~~~~--3~~~~--5~~~~--8~~~~---|
|-0~~~~--3~~~~--5~~~~--8~~~~---|
|-0~~~~--3~~~~--5~~~~--8~~~~---|


Guitar 2:(Play each bit at the same time Guitar 1 plays the chords.)
|----------------------------------------------------------|
|----------------------------------------------------------|
|-14--10------14--10-----17--14------15--14--12-14--12--10-| x2
|--------12~---------10~--------15~------------------------|
|----------------------------------------------------------|
|----------------------------------------------------------|


Verse:
                 This where its just the bass 
              playing the 5th fret, G string.
|--------------------------|----------|
|--------------------------|----------|
|--------------------------|----------|
|-0~~~~~~---3~~~~~~---0x---V----3~~~--|
|-0~~~~~~---3~~~~~~---0x--------3~~~--|
|-0~~~~~~---3~~~~~~---0x--------3~~~--|

|--------------|
|--------------|
|--------------|
|-6----5---3---|  <-----------------------------------------------|
|-6-xx-5-x-3-x-|                                                  | 
|-6-xx-5-x-3-x-|                                                  | Repeat
                                                                  | these  
|------------------------------------------------------------|    | 2x
|------------------------------------------------------------| <--|
|------------------------------------------------------------|  
|-0-----------------------3--5--0-----------------5--6--3~~~-|  
|-0-0-0-0-0-0-0-0-0-0-0-0-3--5--0-0-0-0-0-0-0-0-0-5--6--3~~~-|
|-0-0-0-0-0-0-0-0-0-0-0-0-3--5--0-0-0-0-0-0-0-0-0-5--6--3~~~-|
    . . . . . . . . . . .         . . . . . . . .

|----------|
|----------|
|----------|
|-6--5--3--|
|-6--5--3--|
|-6--5--3--|


Pre-Chorus:

|-------------------------------------------------|
|-------------------------------------------------|
|-7--------10--------12---------------------------|
|-x-(x16)--x--(x16)--x--(x16)---------------------|
|-5--------8---------10--------8888-8888-10101010-|
|------------------------------8888-8888-10101010-|

Chorus:(Slower strumming than the Pre-Chorus)

|------------------------------------------------------------------------|
|------------------------------------------------------------------------|
|------------------------------------------------------------------------|
|-0-------3-------5-------8-------0-------3-------5----------------------|
|-0-(x8)--3-(x8)--5-(x8)--8-(x8)--0-(x8)--3-(x8)--5-(x8)--8888-8888-1010-|
|-0-------3-------5-------8-------0-------3-------5-------8888-8888-1010-|

Repeat Verse

Repeat Pre-Chorus

Repeat Chorus


Pre-Bridge:

|---------------------------------------|
|---------------------------------------|
|---------------------------------------|
|-0~~~~---xxxx--0~~~~-------------------|
|-0~~~~---xxxx--0~~~~----/////////////--|
|-0~~~~---xxxx--0~~~~---//PICKSLIDE//---|


Bridge: (Make each bend big. 5b=[8] and 8b=[11])

|-----------------------------------------------------------|
|-----------------------------------------------------------|
|-----------------------------------------------------------|
|-----------------------------------------------------------|
|-----------------------------------------------------------|
|-0-5b--0-5b--0-5b--0-5b--00000000--0-5b--0-5b--0-5b--0-8b~-|
                          ........
Guitar 1 repeats 4x. while Guitar 1 does that Guitar 2 does the
the palm muted bit and the 8th fret bend at the same time as 
Guitar 1.
Then Both guitars repeat it another 4x.

Repeat Intro.

Altered Chorus:

|-------------------------------|
|-------------------------------|
|-------------------------------|
|-0~~~~--3~~~~--5~~~~--8~~-10~~-|
|-0~~~~--3~~~~--5~~~~--8~~-10~~-|
|-0~~~~--3~~~~--5~~~~--8~~-10~~-|

|---------------------------|
|---------------------------|
|---------------------------|
|-0~~~~--3~~~~--5~~~~--8x---|
|-0~~~~--3~~~~--5~~~~--8x---|
|-0~~~~--3~~~~--5~~~~--8x---|

Repeat normal Chorus,
then end on this power chord, and really let it ring:
|-----------|
|-----------|
|-----------|
|-0~~~~~~---|
|-0~~~~~~---|
|-0~~~~~~---|


Hope this helped and please rate it. =D
Добавлено: 26.11.2013
Другие материалы по этой песне:

Страница создана 11.08.2013
http://primanota.ru/bullet-for-my-valentine/leech-chords.htm
Привет, Гость.
Предлагаем пройти революционный курс по гитаре.
Подарок от PrimaNota.Ru, забирай!