PrimaNota.ru - самый крупный в мире бесплатный архив песенных текстов, аккордов, табулатур и нот


Bullet For My Valentine - Begging For Mercy - текст песни, таба, видео

Регистрация Запомнить меня
Войти через:  Facebook Google Twitter Vk Yandex Mail.ru

Bullet For My Valentine - Begging For Mercy - текст песни, таба, видео

Печатать
Просмотров: 358
Bullet for my Valentine - BEGGING FOR MERCY
Drop C

<> = pinch harmonic
h = hammer on
p =  pull off
b = bend

D|----11--10--11-10-8---------------------------|
A|----14b-13b---------11-10-8-7-8-10-8-7--------|
F|<7>------------------------------------8-<7>--|
C|----------------------------------------------|
G|----------------------------------------------|
C|----------------------------------------------|

                         X5
D|-----------------|-14T-10p9h10-|-15-14----------------|
A|-----------------|-------------|-------16-15-16-15----|
F|---------<8>-<7>-|-------------|----------------------|
C|-<5>-<7>---------|-------------|----------------------|
G|-----------------|-------------|----------------------|
C|-----------------|-------------|----------------------|

D|-10--12--13--15--15-14h15p14----14---------------|
A|-13b-15b-16B-18b--------------16----16-15-16-13--|
F|-------------------------------------------------|
C|-------------------------------------------------|
G|-------------------------------------------------|
C|-------------------------------------------------|

D|-10-10h11p10-8-10-8--------------------------------------------|
A|--------------------11-10-8-11-10-8-10-8-7-8-7-------7-8p7-----|
F|-----------------------------------------------8-7-8-------8p7-|
C|---------------------------------------------------------------|
G|---------------------------------------------------------------|
C|---------------------------------------------------------------|

D|-----------------------|
A|-----------------------|
F|----7-------------7/8--|
C|-10---10-8-7-8-10------|
G|-----------------------|
C|-----------------------|

D|-11--11--11--11--11--13--13--13--13--13--15--15--15--15--15---|
A|-14b-14b-14b-14b-14b-16b-16b-16b-16b-16b-18b-18b-18b-18b-18b--|
F|--------------------------------------------------------------|
C|--------------------------------------------------------------|
G|--------------------------------------------------------------|
C|--------------------------------------------------------------|

D|-11-10-8---------------------------------------------|
A|---------11-10-8-7-8-10-8-7--------------------------|
F|----------------------------8-7-5--------------------|
C|----------------------------------8-7-5-4-5-7-4------|
G|------------------------------------------------5----|
C|-----------------------------------------------------|
Добавлено: 21.10.2013
Другие материалы по этой песне:

Страница создана 22.06.2013
http://primanota.ru/bullet-for-my-valentine/begging-for-mercy-chords.htm
Привет, Гость.
Предлагаем пройти революционный курс по гитаре.
Подарок от PrimaNota.Ru, забирай!