PrimaNota.ru - самый крупный в мире бесплатный архив песенных текстов, аккордов, табулатур и нот


Bullet For My Valentine - Alone - текст песни, таба, видео

Регистрация Запомнить меня
Войти через:  Facebook Google Twitter Vk Yandex Mail.ru

Bullet For My Valentine - Alone - текст песни, таба, видео

Печатать
Просмотров: 969
I came here trying to find tabs for Alone from the new album Fever about an hour ago so 
decided to make my own.

I couldnt figure out the sweeping in the beginning so I started at 0:38 seconds

.= Palm Mute
()=Tap
*=Hammer-On
P=Pull-Off

D---------------------------------------------------------------------------|
A---------------------------------------------------------------------------|
F---------------------------------------4-5-4-2-4-2-4-----------------------|
C----4-2-4-2---5-2-5-2-----------4-2-4-2-----------5------------------------|
G---------------------------------------------------------------------------|
D-0-0-------0-0-------0-0-0-0-0-0-------------------------------------------|
  . .  P   P. .  P   P. . . . . .         * P P   P


D------------------------------------------------------------------------|
A------------------------------------------------------------------------|
F----------------------------------4-5-4-2-4-2-4-------------------------| 4X
C----4-2-4-2---5-2-5-2--2--4-2-4-2------------5--------------------------|
G-----------------------2------------------------------------------------|
D-0-0-------0-0---------0------------------------------------------------|
  . .  P   P. .  P   P               * P P   P


D---------------------------------------------------------------------------|
A---------------------------------------------------------------------------|
F---------------------------------------------------------------------------|
C---------------------------------------------------------------------------|
G-5-9-5-9-(12)-9-5-9-5-9-(12)9-5-9-(10)-9-----------------------------------|
D---------------------------------------------------------------------------|
    * P *        P * P *       P *      P

Verse 1:
D------------------------------------------------------------------------|
A------------------------------------------------------------------------|
F----------------------------------4-5-4-2-4-2-4-------------------------| 3X
C----4-2-4-2---5-2-5-2--2--4-2-4-2------------5--------------------------|
G-----------------------2------------------------------------------------|
D-0-0-------0-0---------0------------------------------------------------|
  . .  P   P. .  P   P               * P P   P


D---------------------------------------------------------------------------|
A---------------------------------------------------------------------------|
F-----------------------5--7------------------------------------------------|
C----4-2-4-2---5-2-5-2--5--7------------------------------------------------|
G-----------------------3--5------------------------------------------------|
D-0-0-------0-0-------------------------------------------------------------|
  . .  P   P. .  P   P

Chorus Pt 1:
D---------------------------------------------------------------------------|
A---------------------------------------------------------------------------|
F-5--5--5--5--------------5--5--5--5----------------------------------------|
C-5--5--5--5--2--2--2--2--5--5--5--5--2--2--2--2----------------------------|
G-3--3--3--3--2--2--2--2--3--3--3--3--2--2--2--2----------------------------|
D-------------0--0--0--0--------------0--0--0--0----------------------------|

Chorus Pt 2 (You Fake Your Damnation):
D---------------------------------------------------------------------------|
A---------------------------------------------------------------------------|
F---------------------------------------------------------------------------|
C---------------------------------------------------------------------------|
G-------------------------------------------------------------------33-333--|
D-00-000-000-000-000-000-000-000-00-000-000-000-000-000-000-000-000---------|

D---------------------------------------------------------------------------|
A---------------------------------------------------------------------------|
F---------------------------------------------------------------------------|
C---------------------------------------------------------------------------|
G-333-333-333-333-333-333-55-555-555-555-555-555----------------------------|
D---------------------------------------------------------------------------|

Verse 2:
D---------------------------------------------------------------------------|
A---------------------------------------------------------------------------|
F---------------------------------------4-5-4-2-4-2-4-----------------------|
C----4-2-4-2---5-2-5-2-----------4-2-4-2-----------5------------------------|
G---------------------------------------------------------------------------|
D-0-0-------0-0-------0-0-0-0-0-0-------------------------------------------|
  . .  P   P. .  P   P. . . . . .         * P P   P


D------------------------------------------------------------------------|
A------------------------------------------------------------------------|
F----------------------------------4-5-4-2-4-2-4-------------------------| 3X
C----4-2-4-2---5-2-5-2--2--4-2-4-2------------5--------------------------|
G-----------------------2------------------------------------------------|
D-0-0-------0-0---------0------------------------------------------------|
  . .  P   P. .  P   P               * P P   P


D---------------------------------------------------------------------------|
A---------------------------------------------------------------------------|
F-----------------------5--7------------------------------------------------|
C----4-2-4-2---5-2-5-2--5--7------------------------------------------------|
G-----------------------3--5------------------------------------------------|
D-0-0-------0-0-------------------------------------------------------------|
  . .  P   P. .  P   P


Chorus Pt 1:
D---------------------------------------------------------------------------|
A---------------------------------------------------------------------------|
F-5--5--5--5--------------5--5--5--5----------------------------------------|
C-5--5--5--5--2--2--2--2--5--5--5--5--2--2--2--2----------------------------|
G-3--3--3--3--2--2--2--2--3--3--3--3--2--2--2--2----------------------------|
D-------------0--0--0--0--------------0--0--0--0----------------------------|

Chorus Pt 2 (You Fake Your Damnation):
D---------------------------------------------------------------------------|
A---------------------------------------------------------------------------|
F---------------------------------------------------------------------------|
C---------------------------------------------------------------------------|
G-------------------------------------------------------------------33-333--|
D-00-000-000-000-000-000-000-000-00-000-000-000-000-000-000-000-000---------|

D---------------------------------------------------------------------------|
A---------------------------------------------------------------------------|
F---------------------------------------------------------------------------|
C---------------------------------------------------------------------------|
G-333-333-333-333-333-333-55-555-555-555-555-555----------------------------|
D---------------------------------------------------------------------------|
                      (Whole Chorus Pt 2 Twice)

Pre-Solo (1st Time)
D---------------------------------------------------------------------------|
A---------------------------------------------------------------------------|
F-11~-13-14-13-11-13-14-13-14-13-11-13-14-13-14-13--11----------------------|
C-------------------------------------------------14------------------------|
G---------------------------------------------------------------------------|
D---------------------------------------------------------------------------|

Pre-Solo (2nd Time)
D----------------------------------------------------------------------------|
A----------------------------------------------------------------------------|
F-11-13-14-13-11-13-14-13-14-13-11-13-14-13-14-13-11-9-----------------------|
C----------------------------------------------------------------------------|
G----------------------------------------------------------------------------|
D----------------------------------------------------------------------------|


Pre-Solo (3rd Time)
D----------------------------------------------------------------------------|
A----------------------------------------------------------------------------|
F-11-13-14-13-11-13-14-13-14-13-11-13-14-13-14-13-11-9-----------------------|
C----------------------------------------------------------------------------|
G----------------------------------------------------------------------------|
D----------------------------------------------------------------------------|

Pre-Solo (4th Time)
D----------------------------------------------------------------------------|
A----------------------------------------------------------------------------|
F-11-13-14-13-11-13-14-13-14-13-11-13-14-13-14-13--11~~----------------------|
C------------------------------------------------14--------------------------|
G----------------------------------------------------------------------------|
D----------------------------------------------------------------------------|

Harmony:
D---------------------------------------------------------------------------|
A--------------------------------------------------10~~---------------------|
F---------------------------------------------------------------------------|
C---------------------------------------------------------------------------|
G---------------------------------------------------------------------------|
D---------------------------------------------------------------------------|

Pre-Solo (5th Time)
D---------------------------------------------------------------------------|
A---------------------------------------------------------------------------|
F-13-14-13-11-13-14-13-14-13-11-13-14-13-14-13--11--------------------------|
C---------------------------------------------14----------------------------|
G---------------------------------------------------------------------------|
D---------------------------------------------------------------------------|

Harmony:
D---------------------------------------------------------------------------|
A-12-14-12-10-12-14-12-14-12-10-12-14-12-14-12--10--------------------------|
F---------------------------------------------13----------------------------|
C---------------------------------------------------------------------------|
G---------------------------------------------------------------------------|
D---------------------------------------------------------------------------|

Pre-Solo (6th Time)
D---------------------------------------------------------------------------|
A---------------------------------------------------------------------------|
F-13-14-13-11-13-14-13-14-13-11-13-14-13-14-13-11-9-------------------------|
C---------------------------------------------------------------------------|
G---------------------------------------------------------------------------|
D---------------------------------------------------------------------------|

Harmony:
D---------------------------------------------------------------------------|
A-12-14-12-10-12-14-12-14-12-10-12-14-12-14-12-10-9-------------------------|
F---------------------------------------------------------------------------|
C---------------------------------------------------------------------------|
G---------------------------------------------------------------------------|
D---------------------------------------------------------------------------|

Pre-Solo (7th Time)
D---------------------------------------------------------------------------|
A---------------------------------------------------------------------------|
F-13-14-13-11-13-14-13-14-13-11-13-14-13-14-13-11-9-------------------------|
C---------------------------------------------------------------------------|
G---------------------------------------------------------------------------|
D---------------------------------------------------------------------------|

Harmony:
D---------------------------------------------------------------------------|
A-12-14-12-10-12-14-12-14-12-10-12-14-12-14-12-10-9-------------------------|
F---------------------------------------------------------------------------|
C---------------------------------------------------------------------------|
G---------------------------------------------------------------------------|
D---------------------------------------------------------------------------|

Pre-Solo (8th Time)
D---------------------------------------------------------------------------|
A---------------------------------------------------------------------------|
F-13-14-13-11-13-14-13-14-13-11-13-14-13-14-13--11--------------------------|
C---------------------------------------------14----------------------------|
G---------------------------------------------------------------------------|
D---------------------------------------------------------------------------|

Harmony:
D---------------------------------------------------------------------------|
A-12-14-12-10-12-14-12-14-12-10-12-14-12-14-12--10--------------------------|
F---------------------------------------------13----------------------------|
C---------------------------------------------------------------------------|
G---------------------------------------------------------------------------|
D---------------------------------------------------------------------------|

Good Luck On The Solo Haha!


Chorus After Solo
D---------------------------------------------------------------------------|
A---------------------------------------------------------------------------|
F-7--7--7--7--7--9--9--9--9--5--5--5--5-------------------------------------|
C-5--5--5--5--5--9--9--9--9--5--5--5--5--2--2--2--2-------------------------|
G----------------7--7--7--7--3--3--3--3--2--2--2--2-------------------------|
D----------------------------------------0--0--0--0-------------------------|

Chorus After Solo Pt 2 (You Fake Your Damnation):
D---------------------------------------------------------------------------|
A---------------------------------------------------------------------------|
F---------------------------------------------------------------------------|
C---------------------------------------------------------------------------|
G-------------------------------------------------------------------33-333--|
D-00-000-000-000-000-000-000-000-00-000-000-000-000-000-000-000-000---------|

D---------------------------------------------------------------------------|
A---------------------------------------------------------------------------|
F---------------------------------------------------------------------------|
C---------------------------------------------------------------------------|
G-333-333-333-333-333-333-55-555-555-555-555-555----------------------------|
D---------------------------------------------------------------------------|
                 (Whole Chorus After Solo Pt 2 Twice)


D---------------------------------------------------------------------------|
A---------------------------------------------------------------------------|
F----------------------------------4-5-4-2-4-2-4----------------------------|
C----4-2-4-2---5-2-5-2--2--4-2-4-2------------5-----------------------------|
G-----------------------2---------------------------------------------------|
D-0-0-------0-0---------0---------------------------------------------------|
  . .  P   P. .  P   P               * P P   P


D---------------------------------------------------------------------------|
A---------------------------------------------------------------------------|
F--------------------------5--7---------------------------------------------|
C----4-2-4-2---5-2-5-2--2--5--7---------------------------------------------|
G-----------------------2--3--5---------------------------------------------|
D-0-0-------0-0---------0---------------------------------------------------|
  . .  P   P. .  P   P


D---------------------------------------------------------------------------|
A---------------------------------------------------------------------------|
F----------------------------------4-5-4-2-4-2-4----------------------------|
C----4-2-4-2---5-2-5-2--2--4-2-4-2------------5-----------------------------|
G-----------------------2---------------------------------------------------|
D-0-0-------0-0---------0---------------------------------------------------|
  . .  P   P. .  P   P               * P P   P


D---------------------------------------------------------------------------|
A---------------------------------------------------------------------------|
F--------------------------5--7--5--4-----4--5--4---------------------------|
C----4-2-4-2---5-2-5-2--2--5--7--5--4--2--4--5--4--2------------------------|
G-----------------------2--3--5--3--2--2--2--3--2--2------------------------|
D-0-0-------0-0---------0--------------0-----------0------------------------|
  . .  P   P. .  P   P

Then the sweeping is the same as the beginning. Hope this helped
Добавлено: 05.11.2013
Другие материалы по этой песне:

Страница создана 07.06.2013
http://primanota.ru/bullet-for-my-valentine/alone-chords.htm
Привет, Гость.
Предлагаем пройти революционный курс по гитаре.
Подарок от PrimaNota.Ru, забирай!